PrimaNota.ru - самый крупный в мире бесплатный архив песенных текстов, аккордов, табулатур и нот


Dream Theater - Funeral For A Friend - аккорды и текст, таба, видео

Регистрация Запомнить меня
Войти через:  Facebook Google Twitter Vk Yandex Mail.ru

Dream Theater - Funeral For A Friend - аккорды и текст, таба, видео

Печатать
Просмотров: 149
Funeral For A Friend
Dream Theater
		   FUNERAL FOR A FRIEND (LOVE LIED BLEEDING)
                          As recorded by Dream Theater
                    (From the 1995 Album A CHANGE OF SEASONS)

Words and Music by Elton John/Bernie Taupin
Arranged by Elton John/Bernie Taupin
Transcribed by C Thomas

Well, first I should acknowledge and thank the poster "snerd" for his/her version of Funeral for a Friend (Love Lies Bleeding) that was tabbed many years ago.  I'm not going to deny that most of the piano parts here (until Love Lies Bleeding starts) are plagiarized from snerds original tab.  I did make a few minor changes that were either more accurate to the Dream Theater arrangement or that I felt were incorrect.  Another thing worth noting is that I got a little lazy on this one.  Up until Love Lies Bleeding, I didn't work much at making sure the piano parts were accurate to what Derek Sherinian played.  I had the other tabs and took the easy way out.  Also, the chord  progression is so extensive that I choose not to add the chord names above the staff.  I could have simply written the chord tonality, but I felt that was worse than not adding anything.

The Guitar parts:
Anybody familiar with this CD knows that it is live.  Because of that, you'll notice that there is only one guitar through out the whole song.  I'm pretty confident about my transcribing here.  The fast run that Petrucci does prior to the segue into Love Lies Bleeding is one thing I wouldn't guarantee.  He is a master a fast, smooth runs and sometimes it's really hard to decipher what he's doing without some better audio equipment.  While tabbing this song, I notice something that actually surprised me.  What Petrucci plays is almost identical to what is on the original Elton John version.  Although the outro solo is all Petrucci.  It surprised me because it seems so "Petrucci" like.  It's all in his tone, technique and style.  There are three ways to achieve the volume swells during the Funeral for a Friend lead parts.  You can use a volume pedal
or a noise gate set to swell (although some may swell to fast, even on the slowest setting).  If you don't have either pedals, you can do it the old fashioned way: with your guitars volume knob.  It's easier to do this with a guitar that has it's volume knob placed close to the strings (such as a strat or one similar).  If this is the case, you can station your pinkie (and your ring finger if you like) on or close to the volume knob while picking.  If you're not use to this technique, I suggest you put aside some time to practice.  If done improperly, volume swells can sound pretty nasty.  The most important thing is to be as fluid as possible.  There is some guitar "noise" behind the piano solo implementing some delay (or maybe tremolo) with muted stings, high notes or both.  It pans back and forth.  It is acts more as a texture than anything else.  I had trouble putting my finger on what exactly was going on.  At least in enough detail to tab it.  It actually might be the piano.

The Piano sound/parts:
Unlike the actual guitar, the piano is represented by three separate guitars.  Each guitar represents a different piano setting.  Guitar (Piano) I is warmer with reverb.  I'd suggest playing through your neck pickup, medium to low volume with your tone turned to about 5-7.  This of coarse can vary based on the type of guitar you're playing.  Guitar (Piano) II is brighter.  Actually, it's more bitey.  You could keep the setting of Guitar (Piano) I and just turn on some subtle overdrive although I would probably switch to my bridge pickup.  Guitar (Piano) III has the sound of a grand piano.  The most important things about this sound is for your tone to be clean and allow the notes to ring into each other.  I'd suggest playing through your neck pickup with you volume at 5-7 and your tone at 7-8.  All in all, try and find what works best.  Experiment with your tone, volumes, effects, where you attack the strings in relation to the bridge (how close or far away you are from it), etc.

I tried to keep the piano parts as user friendly as possible, but there are a few parts where it gets complicated.  Unlike a guitar, it's a lot easier to play notes that are farther apart from each other on a piano.  Such as the piano solo where there are occasions where the low melody (piano bass line) is on the 3rd or 5th position while the high melody (piano lead) is in the 12th or 17th position.  Here, you can either transpose melody to an octave closer to the other melody, split it with a second guitarist (hey, he's not doing much than anyway) or just omit one of the two.

Hopefully I haven't forgotten anything or wasted your time rambling.  Enjoy!


Gtr I (E A D G B E) - 'Warm Piano'
Gtr II (E A D G B E) - 'Bright Piano'
Gtr III (E A D G B E) - 'Grand Piano'
Gtr IV (E A D G B E) - 'Guitar'

  Q=74
 4/4
  Gtr I
  Q.   E Q  Q    Q  Q  Q  Q    Q  Q  Q  Q    Q.   E Q  Q
|--------------|-------------|-------------|--------------|
|-1----0-1-----|-------------|-------------|--------------|
|-0------0--0--|-1--1--0-----|-------0--0--|--------------|
|-1------1--1--|-------1--1--|-3--3--0--0--|-----------0--|
|-----------3--|-3--3-----3--|-3--3--------|-3----2-3--1--|
|--------------|-------------|-------------|-3----3-3-----|


                                                     >
  Q.   E Q  Q    H    Q  Q    H    Q  Q    H.       +Q
|--------------|------------|------------|----------------|
|--------------|------------|------------|----------------|
|--------------|------------|-0----0-----|-0--------(0)---|
|-1----0-1--3--|-1----0--3--|-1----0--3--|-2--------(2)---|
|-1------3--3--|-3----2--2--|-3----2-----|-3--------(3)---|
|--------------|------------|------------|----------------|
|
| Gtr II
|                                                     
| W              W            W            H     Q   Q
|--------------|------------|------------|----------------|
|--------------|------------|------------|----------------|
|--------------|------------|------------|----------------|
|--------------|------------|------------|----------------|
|--------------|------------|------------|----------------|
|--------------|------------|------------|-----------3----|


  Gtr II
  H.      Q    Q  Q  Q  Q    H.      Q    Q  H    Q
|------------|-------------|------------|-------------|
|-4-------6--|-4--------4--|---------4--|-6--4----6---|
|-5-------5--|-5--5-----5--|-5-------5--|-7--5----7---|
|-5-------6--|-5--5--5--5--|-6-------6--|-8--6----8---|
|------------|-------------|-6----------|-------------|
|------------|-------------|------------|-------------|


  Gtr II
  H.      Q    Q  Q  Q  Q    H.      Q    Q  H.
|------------|-------------|------------|-------------------------------------|
|-4-------6--|-4--------4--|---------4--|-6--4--------------------------------|
|-5-------5--|-5--5-----5--|-5-------5--|-7--5--------------------------------|
|-5-------6--|-5--5--5--5--|-6-------6--|-8--6--------------------------------|
|------------|-------------|-6----------|-------------------------------------|
|------------|-------------|------------|-------------------------------------|
|
| Gtr IV
| W            W             W            H      Q   T  T  T  T  T  T  T  T
|------------|-------------|------------|--------------------------15-16h18---|
|------------|-------------|------------|-----------------15-16h18------------|
|------------|-------------|------------|-----------15h17---------------------|
|------------|-------------|------------|-------------------------------------|
|------------|-------------|------------|-------------------------------------|
|------------|-------------|------------|-------------------------------------|


   W           +H.                   E  E
|--6--------|--(6)------------------------|
|--6--------|--(6)-------------------8--9-|
|--7--------|--(7)------------------------|
|--8--------|--(8)------------------------|
|-----------|-----------------------------|
|-----------|-----------------------------|
|
|  ~~~~~~~~~~~~~~~~
|  W           +Q.    a  S  S  e  e  e  e
|-18--------|-(18)------------------15h16-|
|-----------|--------------15-16-18-------|
|-----------|--------15h17----------------|
|-----------|-----------------------------|
|-----------|-----------------------------|
|-----------|-----------------------------|


   Q.    E  Q   Q        W
|--6-----6--6---8-----|----------------|
|--8------------8-----|--4-------------|
|--8------------8-----|--5-------------|
|---------------------|--6-------------|
|---------------------|-------6-5------|
|---------------------|-----------8-6--|
|                        H    E E E E
|
|                        ~~
|  Q.    E  Q   Q        W
|-18----18-18--18b20--|----------------|
|---------------------|-16-------------|
|---------------------|----------------|
|---------------------|----------------|
|---------------------|----------------|
|---------------------|----------------|


                 H.=H                      Q=74
                                          5/4
                                                        Gtr III
                                                     >
      W            H      H                 +H      +H     Q
|-----1--------|---1------0--------------|--(0)-----(0)-------|
|-----1--------|---3------0--------------|--(0)-----(0)-------|
|-----2--------|---1------1--------------|--(1)-----(1)-------|
|-----3--------|---3------2--------------|--(2)-----(2)----2--|
|--------------|---2------2--------------|--(2)-----(2)----2--|
|--------------|-------------------------|--------------------|
|
|                                                    >    * 
|     ~~~~~~~~~~~~~~~~
|  a  W           +H      T  T  E  +Q      +H      +H     Q
|--------------|-------------------------|--------------------|
|-16h18--------|-(18)----17h18-17--(17)--|-(17)----(17)-------|
|--------------|-------------------------|--------------------|
|--------------|-------------------------|-----------------6--|
|--------------|-------------------------|--------------------|
|--------------|-------------------------|--------------------|
                                                          *Guitar IV volumes swells are
                                                          created manually (w/ volume
                                                          pedal, noise gate or guitars
                                                          volume knob)

 4/4
          |-3-|           |-3-|            |-3-|
  H.      E E E   H.      E E E   H    E E E E E   Q  Q  Q  Q
|---------------|---------------|----------------|--------------|
|---------------|---------------|----------------|--------------|
|---------------|---------------|-0--------------|--------------|
|-------------2-|-3-----------3-|-0----0---0-----|-3--2--2--0---|
|-4---------0---|-5---------5---|-2----------2---|-5--2--2--2---|
|-5-------0-----|---------5-----|-3------3-----3-|----0--0--3---|
|
|                                                   
| W               W               W                W
|---------------|---------------|----------------|--------------|
|---------------|---------------|-8--------------|-9------------|
|---------------|-7-------------|----------------|--------------|
|-7-------------|---------------|----------------|--------------|
|---------------|---------------|----------------|--------------|
|---------------|---------------|----------------|--------------|


                                            |-3-|                  |-3-|
   H    E E E E    Q  Q  Q  Q    H    +E  E E E E    H     +E  S S E E E
|---------------|--------------|--------------0---|--0-----(0)-----------|
|---------------|--------------|------------------|--0-----(0)-----3-----|
|-------------0-|--0-----------|-1----(1)---1---1-|--1-----(1)---1---1---|
|-----------2---|--0--3--------|-2----(2)-2-------|--2-----(2)-2-------2-|
|--3----2h3-3---|--1--5--5-----|-2----(2)---------|--2-----(2)-----------|
|--5------------|-----------5--|-0----(0)---------|----------------------|
|
|                                                                   
|  W               W             W                   H.            Q
|---------------|--------------|------------------|----------------------|
|-10------------|-11-----------|------------------|-17-------------------|
|---------------|--------------|------------------|----------------------|
|---------------|--------------|-9----------------|----------------------|
|---------------|--------------|-7----------------|----------------7-----|
|---------------|--------------|------------------|----------------------|


                |-3-|                    |---3---|
  H     +E  S S E E E   H        +E  S S E E     E
|---------------0-----|-1--------(1)-----1---------|
|-2-----(2)-------2---|-3--------(3)-------3-------|
|-2-----(2)---2-----2-|-2--------(2)---2---------2-|
|-2-----(2)-2---------|-0--------(0)-0-------------|
|-0-----(0)-----------|----------------------------|
|---------------------|----------------------------|
|
|                                         
| H.            Q       H        +E  E   E   +E
|---------------------|----------------------------|
|---------------------|----------------------------|
|-6-------------------|-9b10=====(9)-----9r==(9)---|
|---------------7-----|----------------------------|
|---------------------|----------------------------|
|---------------------|----------------------------|


  H     +E S  S  S S S   Q     Q  Q  Q
|-3-----(3)-------------|-1-----0--0------|
|-3-----(3)---------0h3-|-0-----0--0--3---|
|-4-----(4)----0h=2-----|-1-----1--1--4---|
|-----------0-----------|-0-----2--2--5---|
|-----------------------|-----------------|
|-----------------------|-----------------|
|
|                                      
| H.          +Q          Q     Q  Q  Q
|-----------------------|-----------------|
|-----------------------|-----------------|
|-7-----------(7)-------|-9b10--9--9--7---|
|-----------------------|-----------------|
|-----------------------|-----------------|
|-----------------------|-----------------|


               |-3-|
  H    +E  S S E E E   Q  Q  Q  Q    H    +E  S S S S S S   H.      E E
|----------------0-3-|-3--1--------|-0----(0)-----0-------|-5-------5-5-|
|-1----(1)-0-1-------|-3--3--3-----|-0----(0)-------0-----|-5-------5-5-|
|-2----(2)-----2-----|-3--3--3--2--|-1----(1)---1-----1---|-5-------5-5-|
|-2----(2)-----------|-------------|-2----(2)-2---------2-|-7-------7-7-|
|-0----(0)-----------|-------------|-2----(2)-------------|-------------|
|--------------------|-------------|----------------------|-------------|
|
|                                                            
|                                                                   ~
| H    +Q      Q       Q  Q  Q  Q    H    +Q      Q         H.      Q
|--------------------|-------------|----------------------|-------------|
|--------------------|-8--6--------|----------------------|-------------|
|-5----(5)-----------|-------7-----|-9----(9)-------------|-------------|
|--------------7-----|----------7--|--------------6-------|-7-------7---|
|--------------------|-------------|----------------------|-------------|
|--------------------|-------------|----------------------|-------------|


    Q  Q  E  E  E E    E    E  E  E E  E            E       E
|-------------------|-----------------------------------------|
|---0-----0--1--3-0-|--6-------5----6--5------------3---------|
|------0--0--0--2---|-------5-----5-------------------------5-|
|---0---------------|--5-------5----5-------------------------|
|-------------------|-----------------------------------------|
|-------------------|-----------------------------------------|
|
|   ~           ~~             ~~~
| a H     E  E  Q      Q       Q.      S      +S   +S   S   E
|-------------------|-----------------------------------------|
|-------------------|-----------------------------------------|
|-------------------|-----------------------------------------|
|-7s9-----9h10-12---|-14b15---14------14b15==(14)r(14)p12-\10-|
|-------------------|-----------------------------------------|
|-------------------|-----------------------------------------|


      Q  Q    Q     Q      Q          Q        Q        Q
|----------------------|---4----------3---------------------------|
|-----3-------4-----6--|---4----------4--------4--------6---------|
|-----3--3----5-----4--|---3----------3--------3--------7---------|
|-----3--3----6-----6--|--------------------------------8---------|
|----------------------|------------------------------------------|
|----------------------|------------------------------------------|
|
|                   ~~~~~~~~~~             ~~~~
|  a  H       E  E  Q     +E   E     +E   +E   S  S  E  S  S  E
|----------------------|------------------------------------------|
|----------------------|------------------------------------------|
|----------------------|------------------------------------------|
|-10s12-----/13----15--|-(15)-17b18r(17)-(17)-17-15-13-15-13------|
|---------------13-----|-------------------------------------17---|
|----------------------|------------------------------------------|


   Q          Q   a  Q     Q     Q      Q          E   E  E        E
|--0--------------0h=1-----3--|--------------------------------------|
|--1----------1------1-----1--|--3------1----------4---3--1----------|
|--0----------0------0-----0--|--1------1----------1---1--3--------3-|
|-----------------------------|--3------3----------3---3--1--------5-|
|-----------------------------|--------------------------------------|
|-----------------------------|--------------------------------------|
|
|  T  T  E  +Q      E  E  Q     Q      E  S     +E   E  T  T  S  E
|-----------------------------|--------------------------------------|
|-----------------------------|--------------------------------------|
|-----------------------------|-17b19--17--19b20-(19)-19-17h19p17-15-|
|-14h15p14--(14)----14-15-17--|--------------------------------------|
|-----------------------------|--------------------------------------|
|-----------------------------|--------------------------------------|


   H     E  E  Q     H               E E E E
|-----------------|--0-----------------------|
|--------------1--|--1---------------3-3-3-3-|
|--2-----2--3--2--|--0---------------4-4-4-4-|
|--4-----4--4--0--|------------------5-5-5-5-|
|--5-----5--5--0--|--------------------------|
|-----------------|--------------------------|
|
|                                ~~~~
|  H     E  E  Q     Q       a  +H.
|-----------------|--------------------------|
|-----------------|-15b17===15r(15)----------|
|-14----14-15-17--|--------------------------|
|-----------------|--------------------------|
|-----------------|--------------------------|
|-----------------|--------------------------|


   Q.              S       S    Q       Q     Q      Q   Q  S S S S
|--1---------------0h======1----0----------|------------------------|
|--0----------------------------0-------0--|--0------1------0h1p0h1-|
|--1----------------------------1-------1--|--2------2---2----------|
|--0----------------------------2-------0--|--2------2---2----------|
|------------------------------------------|--3------3---3----------|
|------------------------------------------|------------------------|
|
|                                                    ~~~
|  Q       S  +S   S      +S   +Q    a  Q     E  S  H.
|------------------------------------------|------------------------|
|-17b18===17r(17)-17b18==(17)r(17)---------|------------------------|
|-----------------------------------12s16--|-16--17-17--------------|
|------------------------------------------|------------------------|
|------------------------------------------|------------------------|
|------------------------------------------|------------------------|


                                                           |--3---|
   Q   Q                   Q      Q     Q          Q  Q    E E    E
|---------------------------------2--|--2----------3--3-------------|
|--3---3-------------------3------3--|--0----------0--0-------------|
|--2---2-------------------2------2--|-------------0--0-----------0-|
|--4---4-------------------4------4--|--2----------2--2------2------|
|------------------------------------|---------------------2--------|
|------------------------------------|------------------------------|
|
|  Q.     T      +T   +S   Q   a  Q     E  +S   S  H       E    E
|------------------------------------|------------------------------|
|------------------------------------|------------------------------|
|-19-----19b21==(19)r(19)-17--15s11--|-11-(11)h12-12-----/11---12---|
|------------------------------------|------------------------------|
|------------------------------------|------------------------------|
|------------------------------------|------------------------------|


   Q.    E  Q   Q
|--4-----4--5---7----------|
|--3-----3--3---5----------|
|--4-----4-----------------|
|--------------------------|
|--------------------------|
|--------------------------|
|
|  Q.    E  Q   E  +E
|--------------------------|
|--------------------------|
|-13----13-14--16-(16)b17==|
|--------------------------|
|--------------------------|
|--------------------------|


                                      2/4
     
    S  S S S S S S S S S S S S S S S     S   S S S S S S  S
|---5--5-5-5-5-5-5-5-5-5-5-5-5-5-5-5-|---5---5-5-5-5-5-5--5---||
|---5--5-5-5-5-5-5-5-5-5-5-5-5-5-5-5-|---5---5-5-5-5-5-5--5---||
|---5--5-5-5-5-5-5-5-5-5-5-5-5-5-5-5-|---5---5-5-5-5-5-5--5---||
|---7--7-7-7-7-7-7-7-7-7-7-7-7-7-7-7-|---7---7-7-7-7-7-7--7---||
|------------------------------------|------------------------||
|------------------------------------|------------------------||
|
|                                        >
|   ~~~~~~~~~~~~~~~~~~~~~~~~~~~~~~~~~~~~~~~~~
|  +W                                   +Q.            S  S
|------------------------------------|------------------------||
|------------------------------------|------------------------||
|-(16)-------------------------------|-(16)r------------------||
|------------------------------------|------------------------||
|------------------------------------|------------------------||
|------------------------------------|-------------------14\--||


 4/4
  S  S   S S +S  E S  S   S S +S  S E
|----------------0--0--0---0-3-(3)-3-0-|
|-1--1---1-3-(3)-1--1--1---1-0-(0)-0-1-|
|-2--2---2-4-(4)-2--2--2---2---------2-|
|-2--2---2-----------------------------|
|--------------------------------------|
|--------------------------------------|
|
| S +S   E    Q     S +S   E    Q
|--------------------------------------|
|--------------------------------------|
|--------------------------------------|
|-7-(7)\------------7-(7)\-------------|
|-7-(7)\------------7-(7)\-------------|
|-5-(5)\------------5-(5)\-------------|


  S  S   S S +S  S E S   E            Q
|------------------0-0-----------------------|
|-1--1---1-3-(3)-3-1-0---3-------------1-----|
|-2--2---2-4-(4)-4-2-1---1-------------2-----|
|-2--2---2-----------2---2-------------2-----|
|--------------------------------------------|
|--------------------------------------------|
|
|                                 ~~~~~~~~~
| S +S   E    Q      T T T T T T  S   +E   E
|--------------------------------------------|
|--------------------------------------------|
|--------------------------------------------|
|-7-(7)\-------------7p5p4h5p4p0-[2]-([2])---|
|-7-(7)\-------------------------------------|
|-5-(5)\-------------------------------------|


  S  S   S S +S  E S  S   S S +S  S E
|----------------0--0--0---0-3-(3)-3-0-|
|-1--1---1-3-(3)-1--1--1---1-0-(0)-0-1-|
|-2--2---2-4-(4)-2--2--2---2---------2-|
|-2--2---2-----------------------------|
|--------------------------------------|
|--------------------------------------|
|
| S +S   E    Q     S +S   E    Q
|--------------------------------------|
|--------------------------------------|
|--------------------------------------|
|-7-(7)\------------7-(7)\-------------|
|-7-(7)\------------7-(7)\-------------|
|-5-(5)\------------5-(5)\-------------|


  S  S   S S +S  S E S   E            Q
|------------------0-0-----------------------|
|-1--1---1-3-(3)-3-1-0---3-------------1-----|
|-2--2---2-4-(4)-4-2-1---1-------------2-----|
|-2--2---2-----------2---2-------------2-----|
|--------------------------------------------|
|--------------------------------------------|
|
|                                 ~~~~~~~~~
| S +S   E    Q      T T T T T T  S   +E   E
|--------------------------------------------|
|--------------------------------------------|
|--------------------------------------------|
|-7-(7)\-------------7p5p4h5p4p0-[2]-([2])---|
|-7-(7)\-------------------------------------|
|-5-(5)\-------------------------------------|


  S  S   S S +S    E          S  S   S S +S    S   E
|------------------0-----------0--0---0-3-(3)---3---0-------|
|-1--1---1-3-(3)---1-----------1--1---1-0-(0)---0---1-------|
|-2--2---2-4-(4)---2-----------2--2---2-------------2-------|
|-2--2---2--------------------------------------------------|
|-----------------------------------------------------------|
|-----------------------------------------------------------|
|
|          ~~~~~~                       ~~~~~~
| S +S   S S +T  T T T T T T T S +S   S S +T  T T T T T T T
|-----------------------------------------------------------|
|-----------------------------------------------------------|
|-----------------------------------------------------------|
|-7-(7)\-x-7-(7)-7-7p5p4---x-x-7-(7)\-x-7-(7)-7-7p5p4---x-x-|
|-7-(7)\-x---------------7-x-x-7-(7)\-x---------------7-x-x-|
|-5-(5)\-x-----------------x-x-5-(5)\-x-----------------x-x-|


  S  S   S S +S    S   E       S   E         Q
|----------------------0-------0-------------------|
|-1--1---1-3-(3)---3---1-------0---3----------1----|
|-2--2---2-4-(4)---4---2-------1---1----------2----|
|-2--2---2---------------------2---2----------2----|
|--------------------------------------------------|
|--------------------------------------------------|
|
|          ~~~~~~                          ~~~~~~
| S +S   S S +T  T T T T T T T T T T T T T S +E  E
|--------------------------------------------------|
|--------------------------------------------------|
|--------------------------------------------------|
|-7-(7)\-x-7-(7)-7-7p5p4---x-x-7p5p4h5p4p0-2-(2)---|
|-7-(7)\-x---------------7-x-x---------------------|
|-5-(5)\-x-----------------x-x---------------------|


  S  S   S S +S    E          S  S   S S +S    S   E
|------------------0-----------0--0---0-3-(3)---3---0-------|
|-1--1---1-3-(3)---1-----------1--1---1-0-(0)---0---1-------|
|-2--2---2-4-(4)---2-----------2--2---2-------------2-------|
|-2--2---2--------------------------------------------------|
|-----------------------------------------------------------|
|-----------------------------------------------------------|
|
|          ~~~~~~                       ~~~~~~
| S +S   S S +T  T T T T T T T S +S   S S +T  T T T T T T T
|-----------------------------------------------------------|
|-----------------------------------------------------------|
|-----------------------------------------------------------|
|-7-(7)\-x-7-(7)-7-7p5p4---x-x-7-(7)\-x-7-(7)-7-7p5p4---x-x-|
|-7-(7)\-x---------------7-x-x-7-(7)\-x---------------7-x-x-|
|-5-(5)\-x-----------------x-x-5-(5)\-x-----------------x-x-|


  S  S   S S +S    S   E       S   E            Q
|----------------------0-------0----------------------|
|-1--1---1-3-(3)---3---1-------0---3-------------1----|
|-2--2---2-4-(4)---4---2-------1---1-------------2----|
|-2--2---2---------------------2---2-------------2----|
|-----------------------------------------------------|
|-----------------------------------------------------|
|
|          ~~~~~~                           ~~~~~~~~~
| S +S   S S +T  T T T T T T T T T T T T T  S   +Q
|-----------------------------------------------------|
|-----------------------------------------------------|
|-----------------------------------------------------|
|-7-(7)\-x-7-(7)-7-7p5p4---x-x-7p5p4h5p4p0-[2]-([2])--|
|-7-(7)\-x---------------7-x-x------------------------|
|-5-(5)\-x-----------------x-x------------------------|


  S S S S S S S S S S S S Q    S S S S S S S S S S S S Q
|---------------1-1-0-----0--|---------------1-1-0-----0--|
|-0---0-1-----3-3-1-1-----1--|-0---0-1-----3-3-1-1-----1--|
|---0---0---0-0-0-0-0---0-0--|---0---0---0-0-0-0-0---0-0--|
|-0---0---0-----------2------|-0---0---0-----------2------|
|----------------------------|----------------------------|
|----------------------------|----------------------------|
|
| H               H            H               H
|----------------------------|----------------------------|
|----------------------------|----------------------------|
|-----------------5----------|-----------------5----------|
|-5---------------5----------|-5---------------5----------|
|-5---------------3----------|-5---------------3----------|
|-3--------------------------|-3--------------------------|


  S S S S +S  S  E  S E S E   S S S S +S  S  E  S E S E
|-------------0h=3--3-1--0----|-------------0h=3--3-1--0----|
|-2-2-2-3-(3)-2-(2)-3-3----3--|-2-2-2-3-(3)-2-(2)-3-3----3--|
|-2-2-2-2-(2)-2-(2)-2-2--2-2--|-2-2-2-2-(2)-2-(2)-2-2--2-2--|
|-2-2-2-2-(2)-2-(2)-3-3--3-3--|-2-2-2-2-(2)-2-(2)-3-3--3-3--|
|-----------------------------|-----------------------------|
|-----------------------------|-----------------------------|
|
| H                 H           H                 H
|-----------------------------|-----------------------------|
|-----------------------------|-----------------------------|
|-------------------7---------|-------------------7---------|
|-7-----------------7---------|-7-----------------7---------|
|-7-----------------5---------|-7-----------------5---------|
|-5---------------------------|-5---------------------------|


 6/4
   S  E  S  +S   E      S  E  S  +S   E      S  E  S  +S   E
|-13-12-----------------13-12-----------------13-12-----------------|
|-------15-(15)---------------15-(15)---------------15-(15)---------|
|---------------13--------------------16--------------------16------|
|-------------------------------------------------------------------|
|-------------------------------------------------------------------|
|-------------------------------------------------------------------|
|
|                PM-|                  PM-|                  PM-|
|  S  E  S  +S   T  T E  S  E  S  +S   T  T E  S  E  S  +S   T  T E
|-------------------------------------------------------------------|
|-------------------------------------------------------------------|
|-10--9--7--(7)---------10--9--7--(7)---------10--9--7--(7)---------|
|-10--9--7--(7)-------9-10--9--7--(7)-------9-10--9--7--(7)-------9-|
|--8--7--5--(5)-------9--8--7--5--(5)-------9--8--7--5--(5)-------9-|
|----------------7--7-7----------------7--7-7----------------7--7-7-|


  Q=96
 4/4
   Q   Q   Q   Q
|-13--12----------||
|---------15------||
|-------------13--||
|-----------------||
|-----------------||
|-----------------||
|
|  Q   Q   Q   Q
|-----------------||
|-----------------||
|-----------------||
|-----------------||
|--8---7---5------||
|--------------7--||


     E E E E  E  E  E E    E    E  E E E E   E E
|-------------------0---|--3-------1---1---------|
|----2---2----2--3----2-|-------3----3---3-----3-|
|------2---2--------0---|--2-------2---2-----2---|
|----2---2----2---------|------------------------|
|-----------------------|------------------------|
|-----------------------|------------------------|
|
|    ~~                            ~~
| a  H        E  E  Q      Q       H         Q
|-----------------------|------------------------|
|-----------------------|------------------------|
|-----------------------|------------------------|
|-9s11-------11-12-14---|-15b17---15-------------|
|-----------------------|------------------\12---|
|-----------------------|------------------------|


   E E E E  E  E  E E       Q      Q  Q   Q
|---------------------|-----1------0-----------------|
|--0---0----0--1--0---|-----0------3--3---0----------|
|----0---0-----2----0-|-----1------0--0---1----------|
|--0---0----0-----0---|-----0------2--2---0----------|
|---------------------|------------------------------|
|---------------------|------------------------------|
|
|  ~~
|  H        E  E  Q      a  Q      H      E  T  T  S
|---------------------|------------------------------|
|---------------------|------------------------------|
|---------------------|------------------------------|
|----------------12---|-12h14b15--14-----12-12h14p12-|
|-14-------14-15------|------------------------------|
|---------------------|------------------------------|


   H     E  E  E  E    Q       Q   Q   E  E
|--------------0--3-|--3-------1------------|
|--1--------1--1--1-|--3-------3---3--------|
|--2-----2--2--2--2-|--3-------3---3---2--1-|
|--2-----2----------|--5-------3---3--------|
|-------------------|--------------5--------|
|-------------------|-----------------------|
|
|  H     E  E  E  E    Q       Q   Q   E  E
|-------------------|-----------------------|
|-------------------|-----------------------|
|----------------12-|-12tr14----------------|
|-10----------14----|---------15--12--------|
|-------12h15-------|-----------------12p11-|
|-------------------|-----------------------|


    H     E      E   E  E    Q     Q     Q     Q
|---0-----1------0------0-|--1-----0----------------|
|---0-----0----------3----|--0-----0-----3-----0----|
|---1-----1----------1----|--1-----1-----1-----1----|
|---2---------------------|--2-----2-----0-----0----|
|-------------------------|-------------------------|
|-------------------------|-------------------------|
|
|   H     E     +E   E  E    E  E  E  E  E  E  E  E
|-------------------------|-------------------------|
|-------------------------|-------------------------|
|-------------------------|-------------------------|
|-/14----14b15r(14)-12-14-|-12----------------------|
|-------------------------|----14-12-11-12-11-------|
|-------------------------|-------------------12s10-|


  E E E E E  E  E E   E    E E E  E      E      E      E
|---------------0---|-3------1----1----------------------|
|-2---2---2--3----2-|------3---3---------3-------------3-|
|---2---2-------0---|-2------2----2-------------2--------|
|-2---2---2---------|------------------------------------|
|-------------------|------------------------------------|
|-------------------|------------------------------------|
|
| ~
| H       E  E  Q     Q      Q    E       +S  +Q
|-------------------|------------------------------------|
|-------------------|------------------------------------|
|-------------------|------------------------------------|
|-------------------|------------------------------------|
|-------------------|-8b10---8---[8]b10====(8)r(8)b10====|
|-9-------9-10-12---|------------------------------------|


       E  E   E E       E  E E  E    Q      Q   Q         Q
|---------------------------------|--1------0--------------------|
|------0------0---------0--1-0----|--0------3---3---------0------|
|---------0-----0----------2----0-|--1------0---0---------1------|
|------0------0---------0----0----|--0------2---2---------0------|
|---------------------------------|------------------------------|
|---------------------------------|------------------------------|
|
|  a  +Q      E T  T S  E  E E  E    Q   a  Q   E     +Q     E
|---------------------------------|------------------------------|
|---------------------------------|------------------------------|
|-----------/10-9h10p9------------|------------------------------|
|----------------------12-10-9----|-----12s14--12b14-(12)---12s==|
|-(8)r(8)----------------------12-|-11---------------------------|
|---------------------------------|------------------------------|


   H     E  E  E  E    Q       Q   Q   E  E     H     Q  Q
|--------------0--3-|--3-------1------------|---0-----0--0--||
|--1--------1--1--1-|--3-------3---3--------|---0-----0--0--||
|--2-----2--2--2--2-|--3-------3---3---2--1-|---1-----1--1--||
|--2-----2----------|--5-------3---3--------|---2-----2--2--||
|-------------------|--------------5--------|---------------||
|-------------------|-----------------------|---------------||
|
|  H     E  E  E  E    Q       Q   Q   E  E     H     H
|-------------------|-----------------------|---------------||
|-------------------|-----------------------|---------------||
|----------------12-|-12tr14----------------|--------\9-----||
|-10----------14----|---------15--12--------|-/14-----------||
|-------12h15-------|-----------------12p11-|---------------||
|-------------------|-----------------------|---------------||


  Q=146
 4/4
  W              W               W                      W
|-------------|---------------|---------------------|------------------------|
|-------------|---------------|---------------------|------------------------|
|-2-----------|--3------------|--4------------------|---5--------------------|
|-------------|---------------|---------------------|------------------------|
|-0--0--0--0--|--0---0--0--0--|--0---0--0---0-------|---0---------0---0--0---|
|-------------|---------------|---------------------|------------------------|
| Q  Q  Q  Q     Q   Q  Q  Q     Q   Q  Q   Q           Q         Q   Q  Q
|
|                                                 
| ~~~~~~~~~~~~~~~~~~~~~~~~~~~~~~~~~~        ~~~ ~~~~   ~~~~~~~~  ~~~~
| W             +W              +H.        +E   +E     +E    E    Q   H
|-------------|---------------|---------------------|------------------------|
|-------------|---------------|--------------[**10]-|-(10)-(10)-(10)---------|
|-------------|---------------|---------------------|------------------------|
|-7-----------|-(7)-----------|-(7)--------(7)--(7)-|--(7)-------------------|
|-------------|---------------|---------------------|------------------------|
|-------------|---------------|---------------------|------------------------|
                                 H      Q   E    E     +E   +E   +H.

                                              **Feedback


    W                W
|----------------|----------------|
|----------------|----------------|
|---6------------|---7------------|
|----------------|----------------|
|---0---0--0--0--|---0---0--0--0--|
|----------------|----------------|
|   Q   Q  Q  Q      Q   Q  Q  Q
|
|                    >
|   ~~~~~~~~~~~~~~~~~~~~
|  +W               +W
|----------------|----------------|
|-(10)-----------|-(10)-----------|
|----------------|----------------|
|----------------|----------------|
|----------------|----------------|
|----------------|----------------|


  W             H      H        H      H
|-------------|--------------|---------------||
|-------------|--------------|---------------||
|-8-----------|-9-----10-----|-11-----12-----||
|-------------|--------------|---------------||
|-0--0--0--0--|-0--0---0--0--|--0--0---0--0--||
|-------------|--------------|---------------||
| Q  Q  Q  Q    Q  Q   Q  Q     Q  Q   Q  Q
|
| W             W               W
|-------------|--------------|---------------||
|-------------|--------------|---------------||
|-------------|--------------|---------------||
|-------------|--------------|---------------||
|-------------|--------------|---------------||
|-------------|--------------|---------------||


   ~~~~~~~~~~~~~~~~~~~~~~~~~~~~~~~~~~~~~~~~~~~~~~~~~~~~~~~~~~~~~~~
   W           +W
|-----------|----------------------------------------------------|
|-10--------|-(10)-----------------------------------------------|
|-----------|----------------------------------------------------|
|--7--------|--(7)-----------------------------------------------|
|--7--------|--(7)-----------------------------------------------|
|--5--------|--(5)-----------------------------------------------|
|
|                  PM------------|             PM--------------|
|               |-3--| |-3-| |-3-| |-3-| |-3-| |-3-| |-3-| |-3-|
|  W            S  S S S S S S S S S S S S S S S S S S S S S S S
|-----------|----------------------------------------------------|
|-----------|----------------------------------------------------|
|-----------|----------------------1h2-2s4p2p1-------------------|
|--7--------|----------------0-2-4-------------4-2-0-------------|
|--7--------|----------0-2-4-------------------------4-2-0-------|
|--5--------|---0--2-4-------------------------------------4-2-0-|


 ~~~~~~~~
   +W
|-------------------------------|
|-(10)--------------------------|
|-------------------------------|
|--(7)--------------------------|
|--(7)--------------------------|
|--(5)--------------------------|
|
|             ~~~~~~~~~~
|   E    +E  +H     +E  +E
|-------------------------------|
|---3b5==(3)-(3)----(3)-(3)r\---|
|-------------------------------|
|-------------------------------|
|-------------------------------|
|-------------------------------|


    ~~~~~~~~~~~~~~~~~~~~~~~~~~~~~~~~~~~~~~~~~~~~~~~~~~
    W
|----------------------------------------------------|
|-(10)-----------------------------------------------|
|----------------------------------------------------|
|--(7)-----------------------------------------------|
|---7------------------------------------------------|
|---5------------------------------------------------|
|
|      PM------------|             PM--------------|
|   |-3--| |-3-| |-3-| |-3-| |-3-| |-3-| |-3-| |-3-|
|   S  S S S S S S S S S S S S S S S S S S S S S S S
|----------------------------------------------------|
|----------------------------------------------------|
|----------------------1h2-2s4p2p1-------------------|
|----------------0-2-4-------------4-2-0-------------|
|----------0-2-4-------------------------4-2-0-------|
|---0--2-4-------------------------------------4-2-0-|


 ~~~~~~~~
   +W
|-----------------------------|
|-(10)------------------------|
|-----------------------------|
|--(7)------------------------|
|--(7)------------------------|
|--(5)------------------------|
|
|             ~~~~~~~~~~
|   E    +E  +H     +E  +E
|-----------------------------|
|---3b5==(3)-(3)----(3)-(3)r\-|
|-----------------------------|
|-----------------------------|
|-----------------------------|
|-----------------------------|


    ~~~~~~~~~~~~~~~~~~~~~~~~~~~~~~~~~~~~~~~~~~~~~~~~~~
    W
|----------------------------------------------------|
|-(10)-----------------------------------------------|
|----------------------------------------------------|
|--(7)-----------------------------------------------|
|---7------------------------------------------------|
|---5------------------------------------------------|
|
|      PM------------|             PM--------------|
|   |-3--| |-3-| |-3-| |-3-| |-3-| |-3-| |-3-| |-3-|
|   S  S S S S S S S S S S S S S S S S S S S S S S S
|----------------------------------------------------|
|----------------------------------------------------|
|----------------------1h2-2s4p2p1-------------------|
|----------------0-2-4-------------4-2-0-------------|
|----------0-2-4-------------------------4-2-0-------|
|---0--2-4-------------------------------------4-2-0-|


 ~~~~~~~~
   +W
|-----------------------------|
|-(10)------------------------|
|-----------------------------|
|--(7)------------------------|
|--(7)------------------------|
|--(5)------------------------|
|
|             ~~~~~~~~~~
|   E    +E  +H     +E  +E
|-----------------------------|
|---3b5==(3)-(3)----(3)-(3)r\-|
|-----------------------------|
|-----------------------------|
|-----------------------------|
|-----------------------------|


                                                     Love Lies Bleeding Intro
   ~~
   W                                                  E     E   E  E E E E E
|--------------------------------------------------||----------------5-------|
|-10-----------------------------------------------||------------------5-----|
|--------------------------------------------------||-----------6--------6---|
|--7-----------------------------------------------||-7------------7-------7-|
|--7-----------------------------------------------||-------7----------------|
|--5-----------------------------------------------||-5----------------------|
|
|    PM------------|             PM--------------|              ~~~
|  |-3-| |-3-| |-3-| |-3-| |-3-| |-3-| |-3-| |-3-|
|  S S S S S S S S S S S S S S S S S S S S S S S S    E    +E  +H.
|--------------------------------------------------||------------------------|
|--------------------------------------------------||-3b5==(3)-(3)-----------|
|--------------------1h2-2s4p2p1-------------------||------------------------|
|--------------0-2-4-------------4-2-0-------------||------------------------|
|--------0-2-4-------------------------4-2-0-------||------------------------|
|--0-2-4-------------------------------------4-2-0-||------------------------|


   E   E  +E   E       +E   E  E S S
|--8---8--(8)--8-------(8)-----8-----|
|--8---8--(8)--8-------(8)-----8-----|
|-10---9--(9)--9-------(9)-----9-----|
|-10--10-(10)-10------(10)-10-10-----|
|------------------------------------|
|--8---8--(8)--8-------(8)--8--8-0-2-|
|
|  ~~~~~~~~~~~~~~~      ~~~~~~~~~~~~~~
|  Q.         +S  +S   +H
|------------------------------------|
|--3----------(3)-(3)r=(3)-----------|
|------------------------------------|
|------------------------------------|
|------------------------------------|
|------------------------------------|


  a  E  E +E  E +E  E Q    E E +E  E +E  E +Q
|----3--3-(3)-3-(3)---3--|---1-(1)-1-(1)-3-(3)--|
|-3h=5--3-(3)-3-(3)---3--|---1-(1)-1-(1)-3-(3)--|
|----4--4-(4)-4-(4)-4-4--|---2-(2)-2-(2)-4-(4)--|
|----5--5-(5)-5-(5)-5-5--|---3-(3)-3-(3)-5-(5)--|
|------------------------|---3-(3)-3-(3)-5-(5)--|
|----3--3-(3)-3-(3)-3-3--|-1--------------------|
|
|    >
|~~~~~~~
|   +W                     W
|------------------------|----------------------|
|---(3)------------------|----------------------|
|------------------------|----------------------|
|------------------------|----------------------|
|------------------------|----------------------|
|------------------------|----------------------|


  E E E E E E E E    E  E  +E   E  +E   E  E S S
|---------5-------|--8--8--(8)--8--(8)-----8-----|
|-----------5-----|--8--8--(8)--8--(8)-----8-----|
|-----6-------6---|-10--9--(9)--9--(9)-----9-----|
|-7-----7-------7-|-10-10-(10)-10-(10)-10-10-----|
|---7-------------|------------------------------|
|-5---------------|--8--8--(8)--8--(8)--8--8-0-2-|
|
| W                  W
|-----------------|------------------------------|
|-----------------|------------------------------|
|-----------------|------------------------------|
|-----------------|------------------------------|
|-----------------|------------------------------|
|-----------------|------------------------------|


  a E E +E  E +E  E Q    E E +E  E +E  E +Q
|---3-3-(3)-3-(3)---3--|---1-(1)-1-(1)-3-(3)---|
|-3h5-3-(3)-3-(3)---3--|---1-(1)-1-(1)-3-(3)---|
|---4-4-(4)-4-(4)-4-4--|---2-(2)-2-(2)-4-(4)---|
|---5-5-(5)-5-(5)-5-5--|---3-(3)-3-(3)-5-(5)---|
|----------------------|---3-(3)-3-(3)-5-(5)---|
|---3-3-(3)-3-(3)-3-3--|-1---------------------|
|
|   W                    E E  E  E  E  E  E  E
|----------------------|-----------------------|
|----------------------|-----------------------|
|----------------------|-----------------------|
|----------------------|---3-----3-----5-------|
|----------------------|---3-----3-----5-------|
|----------------------|---1-----1-----3-------|


  E E E E  E  E  E  E      E  E  +E   E  +E   E  E  S S
|----------5------------|--8--8--(8)--8--(8)-----8------|
|-------------5---------|--8--8--(8)--8--(8)-----8------|
|-----6----------6------|-10--9--(9)--9--(9)-----9------|
|-7-----7-----------7---|-10-10-(10)-10-(10)-10-10------|
|---7-------------------|-------------------------------|
|-5---------------------|--8--8--(8)--8--(8)--8--8--0-2-|
|
| H       +Q    +E  S S    H             +Q     +E  S S
|-----------------------|-------------------------------|
|-----------------------|-------------------------------|
|-----------------------|--5-------------(5)----(5)-5-5-|
|-7-------(7)---(7)-7-7-|--5-------------(5)----(5)-5-5-|
|-7-------(7)---(7)-7-7-|--3-------------(3)----(3)-3-3-|
|-5-------(5)---(5)-5-5-|-------------------------------|


  a E E +E  E +E  E  Q         E E +E  E +E  E +Q
|---3-3-(3)-3-(3)----3-------|---1-(1)-1-(1)-3-(3)----|
|-3h5-3-(3)-3-(3)----3-------|---1-(1)-1-(1)-3-(3)----|
|---4-4-(4)-4-(4)-4--4-------|---2-(2)-2-(2)-4-(4)----|
|---5-5-(5)-5-(5)-5--5-------|---3-(3)-3-(3)-5-(5)----|
|----------------------------|---3-(3)-3-(3)-5-(5)----|
|---3-3-(3)-3-(3)-3--3-------|-1----------------------|
|
|   H         +Q    +E  +E     E E  E  E  E  E  E  E
|----------------------------|------------------------|
|----------------------------|------------------------|
|----------------------------|------------------------|
|---5---------(5)---(5)-(5)\-|---3-----3-----5--------|
|---5---------(5)---(5)-(5)\-|---3-----3-----5--------|
|---3---------(3)---(3)-(3)\-|---1-----1-----3--------|


  $
  E E E E E E E E    E   E  +E   E  +E   E  E   S S
|---------5-------|--8---8--(8)--8--(8)-----8-------|
|-----------5-----|--8---8--(8)--8--(8)-----8-------|
|-----6-------6---|-10---9--(9)--9--(9)-----9-------|
|-7-----7-------7-|-10--10-(10)-10-(10)-10-10-------|
|---7-------------|---------------------------------|
|-5---------------|--8---8--(8)--8--(8)--8--8---0-2-|
|
| H       E E E E   +H               E   E  S S S S
|-----------------|---------------------------------|
|-----------------|---------------------------------|
|-----------------|---------------------------------|
|-7-------7p5---5-|-(5)---------------------5h7p5---|
|-7-----------7---|------------------5---7--------7-|
|-5---------------|---------------------------------|


  a E E +E  E +E E Q     E  E +E  E +E  E +Q
|---3-3-(3)-3-(3)--3--|-----1-(1)-1-(1)-3-(3)----|
|-3h5-3-(3)-3-(3)--3--|-----1-(1)-1-(1)-3-(3)----|
|---4-4-(4)-4-(4)4-4--|-----2-(2)-2-(2)-4-(4)----|
|---5-5-(5)-5-(5)5-5--|-----3-(3)-3-(3)-5-(5)----|
|---------------------|-----3-(3)-3-(3)-5-(5)----|
|---3-3-(3)-3-(3)3-3--|--1-----------------------|
|
|   H          E E Q    +E  E  E  E  E  E  E  E
|---------------------|--------------------------|
|---------------------|--------------------------|
|---------------------|--------------------------|
|---5--------------5--|-(5)-3-----3-----5--------|
|--------------5h7----|-----3-----3-----5--------|
|---------------------|-----1-----1-----3--------|


 Verse
  Q  E E E E  E  E   +E  E E E E  E  E E
|------5---5-----5-|-(5)---5-------------|
|-5--5-5---5-----5-|-(5)---5-------------|
|-6--6-6---6-----6-|-(6)---7---7--6------|
|-7--7-7---7-----7-|-(7)---7---7-(7)-----|
|------------------|---------------------|
|-5-----------5----|-----5-----------7-5-|
|
| Q  E E E E  E  E   +E  E E E E  E  q
|------------------|---------------------|
|------2---2-(2)-2-|-(2)---3---3p=2--2---|
|-2----2---2-(2)-2-|-(2)---2---2-(2)-2---|
|-2----2---4p=2--2-|-(2)---2---2-(2)-2---|
|-0--0-0-----------|-----0---------------|
|------------------|---------------------|


  E E Q   E E E E    E  E  E E E E Q
|-----4-----4---4-|--------5---4-------|
|-----5-----5---5-|--------7---5-------|
|-----4-----4---4-|--------4---4-------|
|-----6-----6---6-|--------7---6-------|
|-----------------|--------------------|
|-0-0-----0-------|-----0----------0---|
|
| E E E E E E E E   +E  E  E E E E E E
|-----------------|--------------------|
|---9-9---9-9---9-|-(9)---10---9-------|
|---9-9---9-9---9-|-(9)---11---9---9---|
|---9-9---9-9---9-|-(9)------------9---|
|-7-----------7---|-----7--------------|
|-----------------|--------------------|


  E  E  E E  E   E E  E    +Q     E  E   E  E  E E
|-----------------------|--------------------------|
|------10-------10------|--------10--------10------|
|-------9-9------9------|--------11--------11------|
|------11---11--11------|--------12--------12------|
|---12------------------|--------------------------|
|-9------------------10-|-(10)----------10-------7-|
|
| Q     E E +E   E E  E    +E  E  E +E   E +E  E E
|-----------------------|--------------------------|
|-----------------------|--------------------------|
|-6-------6-(6)--6-6--7-|--(7)----7-(7)--7-(7)-7-7-|
|-7-------7-(7)--7-7--7-|--(7)----7-(7)--7-(7)-7-7-|
|-4-----4-4-(4)--4-4--5-|--(5)-5--5-(5)--5-(5)-5-5-|
|-----------------------|--------------------------|


  +Q   E E  E  E E E   +E  E E  E  E  E  E E
|--------------------|-----------------------|
|------7-------------|-----------------------|
|--------7---------8-|-(8)---8-----8---------|
|-----------9------9-|-(9)---9--9--9---------|
|--------------9---9-|-(9)---9-----9---------|
|-(7)------------7---|-----7-------------7-7-|
|
|  Q   E E +E  E E E   +E  E E +E  E +E  E E
|--------------------|-----------------------|
|--------------------|-----------------------|
|--------------------|-----------------------|
|--9-----9-(9)-9-9-9-|-(9)---9-(9)-9-(9)-9-9-|
|--9-----9-(9)-9-9-9-|-(9)---9-(9)-9-(9)-9-9-|
|--7---7-7-(7)-7-7-7-|-(7)-7-7-(7)-7-(7)-7-7-|


  E E E Q   E E E   +E  E E E E E E E
|-----5-----5-----|-------2---2-2-7-7-|
|-----5-----5-----|-------3---3-2-----|
|-----6-----6-----|-------2---2-2-4-4-|
|-----------------|-------4---4-4-----|
|---7-------------|-------------------|
|-5-------------2-|-(2)-2-------------|
|
| Q   Q   E E E E   +Q    Q   E E E E
|-----------------|-------------------|
|-----------------|-------------------|
|-----------------|-----------------4-|
|-7---7---7-7-7-4-|-(4)---4---4-4-4-4-|
|-7---7---7-7-7-4-|-(4)---4---4-4-4-2-|
|-5---5---5-5-5-2-|-(2)---2---2-2-2---|


  +Q   Q  E E E  E    +Q     E Q     E  Q
|-(7)--7--7-8-9-10-|-(10)---10-----(10)-----|
|------------------|------------------------|
|-(4)--4--4-5-6--7-|--(7)----7--------------|
|------------------|------------------------|
|------------------|------------------------|
|------------------|------------------------|
|
| +Q   Q  E E E  E    +E  E  Q   Q      Q
|------------------|------------------------|
|------------------|------------------------|
|-(4)--4-----------|------------------------|
|-(4)--4--4-5-6--7-|--(7)----7---7------7\--|
|-(2)--2--2-3-4--5-|--(5)-5--5---5------5\--|
|------------------|------------------------|


  E Q  E E E    Q      E Q  E E E    Q      E Q  E E E Q    E E E E E E E E
|-5----5-5-----------|-4----4-4-----------|-2----2-2------|---2-2-2---------|
|-5----5-5-----------|-5----5-5-----------|-3----3-3------|---1-1-1-1-0-----|
|-6----6-6-----------|-4----4-4-----------|-2----2-2------|---2-2-2-----2-0-|
|-7----7-7-----------|-6----6-6-----------|-4----4-4------|---4-4-4---------|
|--------------------|--------------------|---------------|-----------------|
|--------------------|--------------------|---------------|-----------------|
|
| E Q  E E E    Q      E Q  E E E    Q      E Q  E E E Q    E E E E E E E E
|--------------------|--------------------|---------------|-----------------|
|--------------------|--------------------|---------------|-----------------|
|--------------------|-9----9-9-----------|-7----7-7------|-----5-5-5p4-----|
|-7----7-7-----------|-9----9-9-----------|-7----7-7------|---7---------7s5-|
|-7----7-7-----------|-7----7-7-----------|-5----5-5------|-----------------|
|-5----5-5---/(14)\--|------------/(12)\--|---------------|-----------------|


 Chorus
  Q  Q  E E +E  E   +Q     Q     E E E E
|----5--5-5-(5)---|--------2-----2-2-2---|
|----7--7-7-(7)---|--------3-----3-3-3---|
|----6--6-6-(6)---|--------4-----4-4-4---|
|-----------------|----------------------|
|---------------2-|-(2)------------------|
|-2---------------|--------------------0-|
|
| Q  Q  E E  Q       E  e +s  e. E E E E
|-2-----2-2-------|-----2-(2)-2--2-2-2---|
|-2-----2-2-------|-----3-(3)-3--3-3-3---|
|-2-----2-2-------|-----4-(4)-4--4-4-4---|
|-4-----4-4-------|-----4-(4)-4--4-4-4---|
|-4--4--4-4-------|-----2-(2)-2--2-2-2---|
|-2--2--2-2-------|----------------------|


  +E  e +s  e. E E Q    E e +s  e. E E Q
|-----5-(5)-5--5-4-4--|---5-(5)-5--5-4-4--|
|-----5-(5)-5--5-5-5--|---5-(5)-5--5-5-5--|
|-----4-(4)-4--4-4-4--|---4-(4)-4--4-4-4--|
|---------------------|-------------------|
|---------------------|-------------------|
|-(0)-----------------|-------------------|
|
|  E  e +s  e. E E Q    E e +s  e. E E Q
|-----5-(5)-5--5-4-4--|---5-(5)-5--5-4-4--|
|-----5-(5)-5--5-5-5--|---5-(5)-5--5-5-5--|
|---------------------|-------------------|
|---------------------|-------------------|
|---------------------|-------------------|
|---------------------|-------------------|


  Q  Q  E E +E  E   +Q    Q   E E E E
|----5--5-5-(5)---|-------2---2-2-2---|
|----7--7-7-(7)---|-------3---3-3-3---|
|----6--6-6-(6)---|-------4---4-4-4---|
|-----------------|-------------------|
|---------------2-|-(2)---------------|
|-2---------------|-----------------0-|
|
| Q  Q  E E  Q       E  E E E E E Q
|-2-----2-2-------|-----7-7---7-7-----|
|-2-----2-2-------|-----7-7---7-7-----|
|-2-----2-2-------|-----7-7---7-7-----|
|-4-----4-4-------|-----9-9---9-9-----|
|-4--4--4-4-------|-------------------|
|-2--2--2-2-------|-------------------|


  +E  e +s  e. E E Q    +E  e +s  e. E E Q
|-----5-(5)-5--5-4-4--|-(4)-5-(5)-5--5-4-4--|
|-----5-(5)-5--5-5-5--|-(5)-5-(5)-5--5-5-5--|
|-----4-(4)-4--4-4-4--|-(4)-4-(4)-4--4-4-4--|
|---------------------|---------------------|
|---------------------|---------------------|
|-(0)-----------------|---------------------|
|
|  E  e +s  e. E E Q     E  e +s  e. E E Q
|-----5-(5)-5--5-4-4--|-----5-(5)-5--5-4-4--|
|-----5-(5)-5--5-5-5--|-----5-(5)-5--5-5-5--|
|---------------------|---------------------|
|---------------------|---------------------|
|---------------------|---------------------|
|---------------------|---------------------|


  E E E E E E E E   Q  E E +E  E E +E    E  E  Q  E  E  +Q
|-----5-------5---|-5----7-(7)---7-(7)-|---------------------|
|-------5-------5-|-5----7-(7)---7-(7)-|------10----10-(10)--|
|---6-------6-----|-6----7-(7)---7-(7)-|-------9-----9--(9)--|
|-7-------7-------|--------------------|------11----11-(11)--|
|-----------------|--------------------|---12----------------|
|-5-------5-------|----7-------7-------|-9--------9----------|
|
| W                 W                    W
|-----------------|--------------------|---------------------|
|-----------------|--------------------|---------------------|
|-2---------------|-4------------------|-6-------------------|
|-2---------------|-4------------------|-6-------------------|
|-0---------------|-2------------------|-4-------------------|
|-----------------|--------------------|---------------------|


   H     +Q    +E   E    +H      Q  Q
|---------------------|------***17s=8\--|
|------------------10-|-(10)------------|
|-11----(11)--(11)-11-|-(11)------------|
|-12----(12)--(12)----|-----------------|
|---------------------|-----------------|
|-10----(10)--(10)----|-----------------|
|
|  W                     +W
|---------------------|-----------------|
|---------------------|-----------------|
|--7------------------|--(7)------------|
|--7------------------|--(7)------------|
|--5------------------|--(5)------------|
|---------------------|-----------------|

                              ***Glissando


  Q  E Q   E Q     Q  E Q  E Q
|----5-----5-----|----4----4----|
|----7-----7-----|----5----5----|
|----6-----6-----|----4----4----|
|-4--------------|-2------------|
|----------------|--------------|
|----------------|--------------|
|
| Q  E E E E E E   W
|----------------|--------------|
|----------------|--------------|
|----------------|--------------|
|----4-2-4-2-----|--------------|
|------------4-2-|-2------------|
|-2--------------|-0------------|


  E E E E E E E E    E   E  +E   E  +E   E  E   S S
|---------5-------|--8---8--(8)--8--(8)-----8-------|
|-----------5-----|--8---8--(8)--8--(8)-----8-------|
|-----6-------6---|-10---9--(9)--9--(9)-----9-------|
|-7-----7-------7-|-10--10-(10)-10-(10)-10-10-------|
|---7-------------|---------------------------------|
|-5---------------|--8---8--(8)--8--(8)--8--8---0-2-|
|
| H       E E E E   +H               E   E  S S S S
|-----------------|---------------------------------|
|-----------------|---------------------------------|
|-----------------|---------------------------------|
|-7-------7p5---5-|-(5)---------------------5h7p5---|
|-7-----------7---|------------------5---7--------7-|
|-5---------------|---------------------------------|


                                          D.S.
  a E E +E  E +E E Q     E  E +E  E +E  E +Q
|---3-3-(3)-3-(3)--3--|-----1-(1)-1-(1)-3-(3)----|
|-3h5-3-(3)-3-(3)--3--|-----1-(1)-1-(1)-3-(3)----|
|---4-4-(4)-4-(4)4-4--|-----2-(2)-2-(2)-4-(4)----|
|---5-5-(5)-5-(5)5-5--|-----3-(3)-3-(3)-5-(5)----|
|---------------------|-----3-(3)-3-(3)-5-(5)----|
|---3-3-(3)-3-(3)3-3--|--1-----------------------|
|
|   H          E E Q    +E  E  E  E  E  E  E  E
|---------------------|--------------------------|
|---------------------|--------------------------|
|---------------------|--------------------------|
|---5--------------5--|-(5)-3-----3-----5--------|
|--------------5h7----|-----3-----3-----5--------|
|---------------------|-----1-----1-----3--------|


  E E E E E E E E    E   E  +E   E  +E   E  E   S S
|---------5-------|--8---8--(8)--8--(8)-----8-------|
|-----------5-----|--8---8--(8)--8--(8)-----8-------|
|-----6-------6---|-10---9--(9)--9--(9)-----9-------|
|-7-----7-------7-|-10--10-(10)-10-(10)-10-10-------|
|---7-------------|---------------------------------|
|-5---------------|--8---8--(8)--8--(8)--8--8---0-2-|
|
| H       E E E E   +H               E   E  S S S S
|-----------------|---------------------------------|
|-----------------|---------------------------------|
|-----------------|---------------------------------|
|-7-------7p5---5-|-(5)---------------------5h7p5---|
|-7-----------7---|------------------5---7--------7-|
|-5---------------|---------------------------------|


  a E E +E  E +E E Q     E  E +E  E +E  E  +Q
|---3-3-(3)-3-(3)--3--|-----1-(1)-1-(1)-3--(3)---|
|-3h5-3-(3)-3-(3)--3--|-----1-(1)-1-(1)-3--(3)---|
|---4-4-(4)-4-(4)4-4--|-----2-(2)-2-(2)-4--(4)---|
|---5-5-(5)-5-(5)5-5--|-----3-(3)-3-(3)-5--(5)---|
|---------------------|-----3-(3)-3-(3)-5--(5)---|
|---3-3-(3)-3-(3)3-3--|--1-----------------------|
|
|   H          E E Q    +E  E  E  E  E  Q.
|---------------------|--------------------------|
|---------------------|--------------------------|
|---------------------|--------------------------|
|---5--------------5--|-(5)-3-----3-----5--------|
|--------------5h7----|-----3-----3-----5--------|
|---------------------|-----1-----1-----3--------|


 Piano Solo
  Q  E  E  a  E  E  Q     a  E   E  E  E  +E   E  E  E
|---------15h17-17-----|-12h13--12----12-(12)----------|
|------17----------17--|-----------15------------15----|
|----------------------|----------------------12-------|
|----------------------|-------------------------------|
|----------------------|----12-------------------------|
|----------------------|----------------------------15-|
|                            W
|
| >
| W                         +W
|----------------------|-------------------------------|
|----------------------|-------------------------------|
|----------------------|-------------------------------|
|-7--------------------|----(7)------------------------|
|-7--------------------|----(7)------------------------|
|-5--------------------|----(5)------------------------|


   a  E  S  E  E  +E   E  E  E    E   E  Q      a  E  E  E  E
|-------------------------------|------------------------------|
|----------------------15-------|------------------------------|
|-12h14--14-12---------12-14-12-|-12--14--------12h14----12----|
|--------------12-(12)----------|--------15-----------15----15-|
|-------------------------------|------------------------------|
|----15------------15-----------|-13--------15-----------15-13-|
|     H             H              Q.        Q.           E  E
|
|     W                            W
|-------------------------------|------------------------------|
|-------------------------------|------------------------------|
|-------------------------------|------------------------------|
|-------------------------------|------------------------------|
|-------------------------------|------------------------------|
|-------------------------------|------------------------------|


   E  E  E  E  +H           E  E  E  E  +H
|------------------------|------------------------|
|-14-15-14---------------|-17-18-17---------------|
|----------14-(14)-------|----------17-(17)---5---|
|---------------7----7---|------------------5-----|
|------------------7-----|--3------------3------3-|
|--5-------------------5-|------------------------|
   H            E  E E E    H            E  E E E


   a  E  E  E  E  H            W
|----------------------------|----------------------|
|----------------------------|----------------------|
|-12h14-16-14-12----12-------|--------------------7-|
|----------------------------|----------7----9-10---|
|----10----------10----12-10-|-8-7h8-10---10--------|
|----------------------------|----------------------|
      H           E  E  E  E   E a E  E E  E E  E E


   E E E E   E   E   Q       E  E  E  E  +E   E  E  E
|------------9--10--12----|-12-13-12------------------|
|-------------------------|----------13-(13)----12----|
|----7-9----------------9-|------------------14----12-|
|--------7----------------|---------------------------|
|-16-------(16)----(16)---|-15------------------15----|
|-------------------------|--------------15--------15-|
   H        +Q      +E  E    H            Q      E  E


   a  E   E  Q      H              E  E  E  E  E  E E  E
|-------------------------------|-------------------------|
|--------12---------------------|-------------------------|
|-12h14-----14------------------|-------------------------|
|-------------------------------|-------------------------|
|-------------------------14----|----14----14----16---16--|
|-----3--------15-(15)-15----15-|-15----15----15----------|
      Q.        E  +E   E  E  E


   S  S  S  S  E  S  S  S  S  E  S  S  E
|----------------------------------------|
|-14h15p14-------14h15p14-------14h15p14-|
|----------14-------------14-------------|
|----------------------------------------|
|-------------12-------------12----------|
|----------------------------------------|


   S  S  S  S  E  S  S  S  S  E  S  S  E
|-----------------------------------------|
|-17h18p17-------17h18p17-------17h18p17--|
|----------17-------------17--------------|
|-----------------------------------------|
|-------------15-------------15-----------|
|-----------------------------------------|


   S  S  S  S  E  S  S  S  S  E  E  E    E  E  E  E  E  E  E  E
|-------------------------------------|-------------------10----|
|-12h13p12-------12h13p12-------12----|-------12----14----------|
|----------12-------------12-------12-|----10----10----12----12-|
|-------------------------------------|-------------------------|
|-------------10-------------10-------|-10----------------------|
|-------------------------------------|-------------------------|
|
| Gtr IV
|  W                                     H           Q     E  E
|-------------------------------------|-------------------------|
|-------------------------------------|-------------------------|
|-------------------------------------|-----------------------x-|
|-------------------------------------|-----------------------x-|
|-------------------------------------|-----------------------x-|
|-------------------------------------|-------------------------|


   E  E  E  E  +E   E  +E   E    +E   E  +E   E  E   E  E   E
|-----------------------------|-------------------------------|
|-14-------14-(14)------------|-------------------------------|
|----14-----------------------|-----------------12--10--9-----|
|-------14---------12-(12)-11-|-(11)---------12------------12-|
|-----------------------------|------12-(12)------------------|
|-----------------------------|-------------------------------|
|
|  H           +Q      +E   E     H             +Q     +E   E
|-----------------------------|-------------------------------|
|-----------------------------|-------------------------------|
|--2-----------(2)-----(2)--x-|---5-------------(5)----(5)--x-|
|--2-----------(2)-----(2)--x-|---5-------------(5)----(5)--x-|
|--0-----------(0)-----(0)--x-|---3-------------(3)----(3)--x-|
|-----------------------------|-------------------------------|


   Q   E  E  +E   E  +E   E    +E  E    +E  E    +E         E  +Q
|---------------------------|------5----(5)-5----(5)--------7--(7)----||
|--------12-(12)-13-(13)-12-|-(12)-6----(6)-6----(6)--------8--(8)----||
|--------12-(12)-12-(12)-12-|-(12)-5----(5)-5----(5)--------7--(7)----||
|-10--10--------------------|-----------------------------------------||
|---------------------------|-----------------------------------------||
|---------------------------|-----------------------------------------||
|
|  W                           +E  E    +E  E    +E  a     +E  +E  E
|---------------------------|-----------------------------------------||
|---------------------------|------8b10-(8)-8b10-(8)-8b10==(8)r(8)p5--||
|---------------------------|-----------------------------------------||
|--5------------------------|--(5)------------------------------------||
|--5------------------------|--(5)------------------------------------||
|--3------------------------|--(3)------------------------------------||


 Guitar Solo
  E    E E E        E   E  E E       E   E  +E   E        +E   E   E S    S
|-------------------5-------------|--8---8--(8)--8--------(8)------8--------|
|-----------------------5---------|--8---8--(8)--8--------(8)------8--------|
|--------6-----------------6------|-10---9--(9)--9--------(9)------9--------|
|-7--------7-----------------7----|-10--10-(10)-10-------(10)-10--10--------|
|------7--------------------------|-----------------------------------------|
|-5-------------------------------|--8---8--(8)--8--------(8)--8---8-0----2-|
|
| ~~~~                               ~~~
| H          a     +E  +E  E E      +H             a      +E  +E   E E
|----------------------------8b10-|-(8)------------8b10===(8)r(8)p=5--------|
|-8b10-------8b10==(8)r(8)p5------|----------------------------------8b10---|
|---------------------------------|-----------------------------------------|
|---------------------------------|-----------------------------------------|
|---------------------------------|-----------------------------------------|
|---------------------------------|-----------------------------------------|


  a  E  E +E  E       +E   E  Q         E   E      +E  E +E  E +Q
|----3--3-(3)-3-------(3)-----3------|------1------(1)-1-(1)-3-(3)-------|
|-3h=5--3-(3)-3-------(3)-----3------|------1------(1)-1-(1)-3-(3)-------|
|----4--4-(4)-4-------(4)--4--4------|------2------(2)-2-(2)-4-(4)-------|
|----5--5-(5)-5-------(5)--5--5------|------3------(3)-3-(3)-5-(5)-------|
|------------------------------------|------3------(3)-3-(3)-5-(5)-------|
|----3--3-(3)-3-------(3)--3--3------|--1--------------------------------|
|
|    ~~~                                    ~~~~~~~~~~~
|   +H          a     +E  +E  E E      +E  +S  +S  +H           S S E
|------------------------------------|-----------------------------------|
|---(8)---------8b10==(8)r(8)p5------|-----------------------------------|
|-------------------------------7b9==|=(7)r(7)-(7)-(7)----------7h9p7\---|
|------------------------------------|-----------------------------------|
|------------------------------------|-----------------------------------|
|------------------------------------|-----------------------------------|


  E    E E E        E   E  E E       E   E  +E   E        +E   E   E S    S
|-------------------5-------------|--8---8--(8)--8--------(8)------8--------|
|-----------------------5---------|--8---8--(8)--8--------(8)------8--------|
|--------6-----------------6------|-10---9--(9)--9--------(9)------9--------|
|-7--------7-----------------7----|-10--10-(10)-10-------(10)-10--10--------|
|------7--------------------------|-----------------------------------------|
|-5-------------------------------|--8---8--(8)--8--------(8)--8---8-0----2-|
|
| ~~~~                               ~~~
| H          a     +E  +E  E E      +H             a      +E  +E   E E
|----------------------------8b10-|-(8)------------8b10===(8)r(8)p=5--------|
|-8b10-------8b10==(8)r(8)p5------|----------------------------------8b10---|
|---------------------------------|-----------------------------------------|
|---------------------------------|-----------------------------------------|
|---------------------------------|-----------------------------------------|
|---------------------------------|-----------------------------------------|


  a  E  E +E  E       +E   E  Q           E   E     +E  E +E  E +Q
|----3--3-(3)-3-------(3)-----3-------|-------1-----(1)-1-(1)-3-(3)---|
|-3h=5--3-(3)-3-------(3)-----3-------|-------1-----(1)-1-(1)-3-(3)---|
|----4--4-(4)-4-------(4)--4--4-------|-------2-----(2)-2-(2)-4-(4)---|
|----5--5-(5)-5-------(5)--5--5-------|-------3-----(3)-3-(3)-5-(5)---|
|-------------------------------------|-------3-----(3)-3-(3)-5-(5)---|
|----3--3-(3)-3-------(3)--3--3-------|---1---------------------------|
|
|    ~~~                                  ~~~~       ~~~~
|   +H          a     +E  +E  E  E       +E   E     +H.
|-------------------------------12b15-|-(12)-12b15-(12)---------------|
|---(8)---------8b10==(8)r(8)p5-------|-------------------------------|
|-------------------------------------|-------------------------------|
|-------------------------------------|-------------------------------|
|-------------------------------------|-------------------------------|
|-------------------------------------|-------------------------------|


  E     E E E E  E  E E        E   E  +E   E  +E  E   E S     S
|-------------5-------------|--8---8--(8)--8--(8)-----8---------|
|----------------5----------|--8---8--(8)--8--(8)-----8---------|
|---------6---------6-------|-10---9--(9)--9--(9)-----9---------|
|-7---------7---------7-----|-10--10-(10)-10-(10)10--10---------|
|-------7-------------------|-----------------------------------|
|-5-------------------------|--8---8--(8)--8--(8)-8---8-0-----2-|
|
|                   ~                                 ~~
| E     e e e E +E  E E       +E   e   e   e   E +E   E E
|---------------------8b10==|=(8)--8---8---8---8r(8)--5---------|
|-8b10==8-8-8-8r(8)-5-------|---------------------------8b10====|
|---------------------------|-----------------------------------|
|---------------------------|-----------------------------------|
|---------------------------|-----------------------------------|
|---------------------------|-----------------------------------|


  a  E  E +E  E +E   E Q           E  E +E      E   +E  E +Q
|----3--3-(3)-3-(3)----3-------|------1-(1)-----1---(1)-3-(3)--|
|-3h=5--3-(3)-3-(3)----3-------|------1-(1)-----1---(1)-3-(3)--|
|----4--4-(4)-4-(4)--4-4-------|------2-(2)-----2---(2)-4-(4)--|
|----5--5-(5)-5-(5)--5-5-------|------3-(3)-----3---(3)-5-(5)--|
|------------------------------|------3-(3)-----3---(3)-5-(5)--|
|----3--3-(3)-3-(3)--3-3-------|---1---------------------------|
|
|    ~~~~~~~~~~~~~~~~                           ~~~~~~~~
|   +H          +Q     E  E       +Q     E     +E   +H
|------------------------12b15-|-(12)---12b15-(12)-(12)--------|
|---(8)---------(8)r---x-------|-------------------------------|
|------------------------------|-------------------------------|
|------------------------------|-------------------------------|
|------------------------------|-------------------------------|
|------------------------------|-------------------------------|


 Chorus
   Q     Q    E  E +E  E   +Q      Q   E E E E
|--------5----5--5-(5)---|---------2---2-2-2---|
|--------7----7--7-(7)---|---------3---3-3-3---|
|--------6----6--6-(6)---|---------4---4-4-4---|
|------------------------|---------------------|
|----------------------2-|-(2)-----------------|
|--2---------------------|-------------------0-|
|
|             ~~~~~~~~~~~          ~~
|  E  E  E E +Q    +E  E   +E  +E  H.
|------------------------|---------------------|
|------------------------|---------------------|
|-14p12p11s9-(9)---(9)s7-|-(7)-(7)s4-----------|
|------------------------|---------------------|
|------------------------|---------------------|
|------------------------|---------------------|


  +E  e +s  e. E E Q    E e +s  e. E E Q
|-----5-(5)-5--5-4-4--|---5-(5)-5--5-4-4--|
|-----5-(5)-5--5-5-5--|---5-(5)-5--5-5-5--|
|-----4-(4)-4--4-4-4--|---4-(4)-4--4-4-4--|
|---------------------|-------------------|
|---------------------|-------------------|
|-(0)-----------------|-------------------|
|
|  E  e +s  e. E E Q    E e +s  e. E E Q
|-----5-(5)-5--5-4-4--|---5-(5)-5--5-4-4--|
|-----5-(5)-5--5-5-5--|---5-(5)-5--5-5-5--|
|---------------------|-------------------|
|---------------------|-------------------|
|---------------------|-------------------|
|---------------------|-------------------|


  Q  Q  E E +E  E   +Q    Q   E E E E
|----5--5-5-(5)---|-------2---2-2-2---|
|----7--7-7-(7)---|-------3---3-3-3---|
|----6--6-6-(6)---|-------4---4-4-4---|
|-----------------|-------------------|
|---------------2-|-(2)---------------|
|-2---------------|-----------------0-|
|
| Q  Q  E E  Q       E  E E E E E Q
|-2-----2-2-------|-----7-7---7-7-----|
|-2-----2-2-------|-----7-7---7-7-----|
|-2-----2-2-------|-----7-7---7-7-----|
|-4-----4-4-------|-----9-9---9-9-----|
|-4--4--4-4-------|-------------------|
|-2--2--2-2-------|-------------------|


  +E  e +s  e. E E Q    E e +s  e. E E Q
|-----5-(5)-5--5-4-4--|---5-(5)-5--5-4-4--|
|-----5-(5)-5--5-5-5--|---5-(5)-5--5-5-5--|
|-----4-(4)-4--4-4-4--|---4-(4)-4--4-4-4--|
|---------------------|-------------------|
|---------------------|-------------------|
|-(0)-----------------|-------------------|
|
|  E  e +s  e. E E Q    E e +s  e. E E Q
|-----5-(5)-5--5-4-4--|---5-(5)-5--5-4-4--|
|-----5-(5)-5--5-5-5--|---5-(5)-5--5-5-5--|
|---------------------|-------------------|
|---------------------|-------------------|
|---------------------|-------------------|
|---------------------|-------------------|


  E E E E E E E E   Q  E E +E  E E +E    E  E  Q  E  E  +Q
|-----5-------5---|-5----7-(7)---7-(7)-|---------------------|
|-------5-------5-|-5----7-(7)---7-(7)-|------10----10-(10)--|
|---6-------6-----|-6----7-(7)---7-(7)-|-------9-----9--(9)--|
|-7-------7-------|--------------------|------11----11-(11)--|
|-----------------|--------------------|---12----------------|
|-5-------5-------|----7-------7-------|-9--------9----------|
|
| W                 W                    W
|-----------------|--------------------|---------------------|
|-----------------|--------------------|---------------------|
|-2---------------|-4------------------|-6-------------------|
|-2---------------|-4------------------|-6-------------------|
|-0---------------|-2------------------|-4-------------------|
|-----------------|--------------------|---------------------|


   H     +Q    +E   E    +H      Q  Q
|---------------------|---------17s=8\--|
|------------------10-|-(10)------------|
|-11----(11)--(11)-11-|-(11)------------|
|-12----(12)--(12)----|-----------------|
|---------------------|-----------------|
|-10----(10)--(10)----|-----------------|
|
|  W                     +W
|---------------------|-----------------|
|---------------------|-----------------|
|--7------------------|--(7)------------|
|--7------------------|--(7)------------|
|--5------------------|--(5)------------|
|---------------------|-----------------|


  Q  E Q   E Q     Q  E Q  E Q
|----5-----5-----|----4----4----|
|----7-----7-----|----5----5----|
|----6-----6-----|----4----4----|
|-4--------------|-2------------|
|----------------|--------------|
|----------------|--------------|
|
| Q  E E E E E E   W
|----------------|--------------|
|----------------|--------------|
|----------------|--------------|
|----4p2-4p2-----|--------------|
|------------4p2-|-2------------|
|-2--------------|-0------------|


  E E E E E E E E    E   E  +E   E  +E   E  E   S S
|---------5-------|--8---8--(8)--8--(8)-----8-------|
|-----------5-----|--8---8--(8)--8--(8)-----8-------|
|-----6-------6---|-10---9--(9)--9--(9)-----9-------|
|-7-----7-------7-|-10--10-(10)-10-(10)-10-10-------|
|---7-------------|---------------------------------|
|-5---------------|--8---8--(8)--8--(8)--8--8---0-2-|
|
| H       E E E E   +H               E   E  S S S S
|-----------------|---------------------------------|
|-----------------|---------------------------------|
|-----------------|---------------------------------|
|-7-------7p5---5-|-(5)---------------------5h7p5---|
|-7-----------7---|------------------5---7--------7-|
|-5---------------|---------------------------------|


  a E E +E  E +E E Q     E  E +E  E +E  E  +Q
|---3-3-(3)-3-(3)--3--|-----1-(1)-1-(1)-3--(3)---|
|-3h5-3-(3)-3-(3)--3--|-----1-(1)-1-(1)-3--(3)---|
|---4-4-(4)-4-(4)4-4--|-----2-(2)-2-(2)-4--(4)---|
|---5-5-(5)-5-(5)5-5--|-----3-(3)-3-(3)-5--(5)---|
|---------------------|-----3-(3)-3-(3)-5--(5)---|
|---3-3-(3)-3-(3)3-3--|--1-----------------------|
|
|   H          E E Q    +E  E  E  E  E  Q.
|---------------------|--------------------------|
|---------------------|--------------------------|
|---------------------|--------------------------|
|---5--------------5--|-(5)-3-----3-----5--------|
|--------------5h7----|-----3-----3-----5--------|
|---------------------|-----1-----1-----3--------|


  E E E E E E E E    E   E  +E   E  +E   E  E   S S
|---------5-------|--8---8--(8)--8--(8)-----8-------|
|-----------5-----|--8---8--(8)--8--(8)-----8-------|
|-----6-------6---|-10---9--(9)--9--(9)-----9-------|
|-7-----7-------7-|-10--10-(10)-10-(10)-10-10-------|
|---7-------------|---------------------------------|
|-5---------------|--8---8--(8)--8--(8)--8--8---0-2-|
|
| H       E E E E   +H               E   E  S S S S
|-----------------|---------------------------------|
|-----------------|---------------------------------|
|-----------------|---------------------------------|
|-7-------7p5---5-|-(5)---------------------5h7p5---|
|-7-----------7---|------------------5---7--------7-|
|-5---------------|---------------------------------|


  a E E +E  E +E E Q     E  E +E  E +E  E  +Q
|---3-3-(3)-3-(3)--3--|-----1-(1)-1-(1)-3--(3)---|
|-3h5-3-(3)-3-(3)--3--|-----1-(1)-1-(1)-3--(3)---|
|---4-4-(4)-4-(4)4-4--|-----2-(2)-2-(2)-4--(4)---|
|---5-5-(5)-5-(5)5-5--|-----3-(3)-3-(3)-5--(5)---|
|---------------------|-----3-(3)-3-(3)-5--(5)---|
|---3-3-(3)-3-(3)3-3--|--1-----------------------|
|
|   H          E E Q    +E  E  E  E  E  Q.
|---------------------|--------------------------|
|---------------------|--------------------------|
|---------------------|--------------------------|
|---5--------------5--|-(5)-3-----3-----5--------|
|--------------5h7----|-----3-----3-----5--------|
|---------------------|-----1-----1-----3--------|


  Q  Q  E E +E  E   +Q     Q     E E E E
|----5--5-5-(5)---|--------2-----2-2-2---|
|----7--7-7-(7)---|--------3-----3-3-3---|
|----6--6-6-(6)---|--------4-----4-4-4---|
|-----------------|----------------------|
|---------------2-|-(2)------------------|
|-2---------------|--------------------0-|
|
| Q  Q  E E  Q       E  e +s  e. E E E E
|-2-----2-2-------|-----2-(2)-2--2-2-2---|
|-2-----2-2-------|-----3-(3)-3--3-3-3---|
|-2-----2-2-------|-----4-(4)-4--4-4-4---|
|-4-----4-4-------|-----4-(4)-4--4-4-4---|
|-4--4--4-4-------|-----2-(2)-2--2-2-2---|
|-2--2--2-2-------|----------------------|


  +E  e +s  e. E E Q    E e +s  e. E E Q
|-----5-(5)-5--5-4-4--|---5-(5)-5--5-4-4--|
|-----5-(5)-5--5-5-5--|---5-(5)-5--5-5-5--|
|-----4-(4)-4--4-4-4--|---4-(4)-4--4-4-4--|
|---------------------|-------------------|
|---------------------|-------------------|
|-(0)-----------------|-------------------|
|
|  E  e +s  e. E E Q    E e +s  e. E E Q
|-----5-(5)-5--5-4-4--|---5-(5)-5--5-4-4--|
|-----5-(5)-5--5-5-5--|---5-(5)-5--5-5-5--|
|---------------------|-------------------|
|---------------------|-------------------|
|---------------------|-------------------|
|---------------------|-------------------|


  Q  Q  E E +E  E   +Q    Q   E E E E
|----5--5-5-(5)---|-------2---2-2-2---|
|----7--7-7-(7)---|-------3---3-3-3---|
|----6--6-6-(6)---|-------4---4-4-4---|
|-----------------|-------------------|
|---------------2-|-(2)---------------|
|-2---------------|-----------------0-|
|
| Q  Q  E E  Q       E  E E E E E Q
|-2-----2-2-------|-----7-7---7-7-----|
|-2-----2-2-------|-----7-7---7-7-----|
|-2-----2-2-------|-----7-7---7-7-----|
|-4-----4-4-------|-----9-9---9-9-----|
|-4--4--4-4-------|-------------------|
|-2--2--2-2-------|-------------------|


  +E  e +s  e. E E Q    E e +s  e. E E Q
|-----5-(5)-5--5-4-4--|---5-(5)-5--5-4-4--|
|-----5-(5)-5--5-5-5--|---5-(5)-5--5-5-5--|
|-----4-(4)-4--4-4-4--|---4-(4)-4--4-4-4--|
|---------------------|-------------------|
|---------------------|-------------------|
|-(0)-----------------|-------------------|
|
|  E  e +s  e. E E Q    E e +s  e. E E Q
|-----5-(5)-5--5-4-4--|---5-(5)-5--5-4-4--|
|-----5-(5)-5--5-5-5--|---5-(5)-5--5-5-5--|
|---------------------|-------------------|
|---------------------|-------------------|
|---------------------|-------------------|
|---------------------|-------------------|


  E E E E E E E E   Q  E E +E  E E +E    E  E  Q  E  E  +Q
|-----5-------5---|-5----7-(7)---7-(7)-|---------------------|
|-------5-------5-|-5----7-(7)---7-(7)-|------10----10-(10)--|
|---6-------6-----|-6----7-(7)---7-(7)-|-------9-----9--(9)--|
|-7-------7-------|--------------------|------11----11-(11)--|
|-----------------|--------------------|---12----------------|
|-5-------5-------|----7-------7-------|-9--------9----------|
|
| W                 W                    W
|-----------------|--------------------|---------------------|
|-----------------|--------------------|---------------------|
|-2---------------|-4------------------|-6-------------------|
|-2---------------|-4------------------|-6-------------------|
|-0---------------|-2------------------|-4-------------------|
|-----------------|--------------------|---------------------|


   H     +Q    +E   E    +H      Q  Q
|---------------------|---------17s=8\--|
|------------------10-|-(10)------------|
|-11----(11)--(11)-11-|-(11)------------|
|-12----(12)--(12)----|-----------------|
|---------------------|-----------------|
|-10----(10)--(10)----|-----------------|
|
|  W                     +W
|---------------------|-----------------|
|---------------------|-----------------|
|--7------------------|--(7)------------|
|--7------------------|--(7)------------|
|--5------------------|--(5)------------|
|---------------------|-----------------|


  Q  E Q   E Q     Q  E Q  E Q
|----5-----5-----|----4----4----|
|----7-----7-----|----5----5----|
|----6-----6-----|----4----4----|
|-4--------------|-2------------|
|----------------|--------------|
|----------------|--------------|
|
| Q  E E E E E E   W
|----------------|--------------|
|----------------|--------------|
|----------------|--------------|
|----4p2-4p2-----|--------------|
|------------4p2-|-2------------|
|-2--------------|-0------------|


  E E E E E E E E    E   E  +E   E  +E   E  E   S S
|---------5-------|--8---8--(8)--8--(8)-----8-------|
|-----------5-----|--8---8--(8)--8--(8)-----8-------|
|-----6-------6---|-10---9--(9)--9--(9)-----9-------|
|-7-----7-------7-|-10--10-(10)-10-(10)-10-10-------|
|---7-------------|---------------------------------|
|-5---------------|--8---8--(8)--8--(8)--8--8---0-2-|
|
| H       E E E E   +H               E   E  S S S S
|-----------------|---------------------------------|
|-----------------|---------------------------------|
|-----------------|---------------------------------|
|-7-------7p5---5-|-(5)---------------------5h7p5---|
|-7-----------7---|------------------5---7--------7-|
|-5---------------|---------------------------------|


  a E E +E  E +E E Q     E  E +E  E +E  E  +Q
|---3-3-(3)-3-(3)--3--|-----1-(1)-1-(1)-3--(3)---|
|-3h5-3-(3)-3-(3)--3--|-----1-(1)-1-(1)-3--(3)---|
|---4-4-(4)-4-(4)4-4--|-----2-(2)-2-(2)-4--(4)---|
|---5-5-(5)-5-(5)5-5--|-----3-(3)-3-(3)-5--(5)---|
|---------------------|-----3-(3)-3-(3)-5--(5)---|
|---3-3-(3)-3-(3)3-3--|--1-----------------------|
|
|   H          E E Q    +E  E  E  E  E  Q.
|---------------------|--------------------------|
|---------------------|--------------------------|
|---------------------|--------------------------|
|---5--------------5--|-(5)-3-----3-----5--------|
|--------------5h7----|-----3-----3-----5--------|
|---------------------|-----1-----1-----3--------|


    E  E E E E E  E   E    E   E  +E      E     +E    E  E S S
|------------5----------|--8---8--(8)-----8-----(8)------8-----|
|--------------5--------|--8---8--(8)-----8-----(8)------8-----|
|--------6--------6-----|-10---9--(9)-----9-----(9)------9-----|
|---7------7----------7-|-10--10-(10)----10----(10)--10-10-----|
|------7----------------|--------------------------------------|
|---5-------------------|--8---8--(8)-----8-----(8)---8--8-0-2-|
|
|   ~~~~~~~~~~~~~~~~~~~~~~~~~~
| a H.           +E   E   +Q.          a  E     +E    E  E E
|-----------------------|-----------------------------5--5-5---|
|-----------------------|-----------------------------5--5-5---|
|--------------------/5-|-(5)-------------7b9===(7)r-----------|
|-5s7------------(7)----|-------------^x-----------------------|
|-----------------------|-------------^x-----------------------|
|-----------------------|--------------------------------------|


  a E   E +E  E   +E  E Q       E E   +E  E   +E  E   +Q
|---3---3-(3)-3---(3)---3-----|---1---(1)-1---(1)-3---(3)-----|
|-3h5---3-(3)-3---(3)---3-----|---1---(1)-1---(1)-3---(3)-----|
|---4---4-(4)-4---(4)-4-4-----|---2---(2)-2---(2)-4---(4)-----|
|---5---5-(5)-5---(5)-5-5-----|---3---(3)-3---(3)-5---(5)-----|
|-----------------------------|---3---(3)-3---(3)-5---(5)-----|
|---3---3-(3)-3---(3)-3-3-----|-1-----------------------------|
|
|   E   E  E  E    E  E E   E   E E    E  E    E  E    E  E
|-------5--5-------5--5-----5-|-5------5-------5-------5------|
|-------5--5-------5--5-----5-|-5------5-------5-------5------|
|---7b9-------7b9-------7b9---|---7b9-----7b9-----7b9-----7b9-|
|-----------------------------|-------------------------------|
|-----------------------------|-------------------------------|
|-----------------------------|-------------------------------|


  E E E   E E E   E E    E    E  +E   E  +E      E   E  S S
|-----------5---------|--8----8--(8)--8--(8)---------8------|
|-------------5-------|--8----8--(8)--8--(8)---------8------|
|-----6-----------6---|-10----9--(9)--9--(9)---------9------|
|-7-------7---------7-|-10---10-(10)-10-(10)----10--10------|
|---7-----------------|-------------------------------------|
|-5-------------------|--8----8--(8)--8--(8)-----8---8--0-2-|
|
|                                                    ~~~~~~~~
| E E E   E E E   E E    E    E   E   E   E     +E  +Q
|-5-5-----5-5-----5-5-|-------5---5---5---5-----(5)-(5)-----|
|-5-5-----5-5-----5-5-|-------5---5---5---8b10==(8)-(8)-----|
|-----7b9-----7b9-----|--7b9--------------------------------|
|---------------------|-------------------------------------|
|---------------------|-------------------------------------|
|---------------------|-------------------------------------|


  a E E +E  E +E  E Q    E E +E  E +E  E +Q
|---3-3-(3)-3-(3)---3--|---1-(1)-1-(1)-3-(3)---------|
|-3h5-3-(3)-3-(3)---3--|---1-(1)-1-(1)-3-(3)---------|
|---4-4-(4)-4-(4)-4-4--|---2-(2)-2-(2)-4-(4)---------|
|---5-5-(5)-5-(5)-5-5--|---3-(3)-3-(3)-5-(5)---------|
|----------------------|---3-(3)-3-(3)-5-(5)---------|
|---3-3-(3)-3-(3)-3-3--|-1---------------------------|
|
|~~~~~~~~~~~~~~~~~~~~~~~~~~~~~~~~
|   H          Q    Q    Q    H           E      +E
|---5----------5----5--|-5----5----------------------|
|---8----------8----8--|-8----8r---------15b17==(15)-|
|----------------------|-----------------------------|
|----------------------|-----------------------------|
|----------------------|-----------------------------|
|----------------------|-----------------------------|


    E          E   E          E   E          E   E          E     E           E  +E           E

+E           E   E          S S
|---------------------------------5---------------------------|---8-----------8--(8)----------8--

(8)--------------8--------------|
|--------------------------------------------5----------------|---8-----------8--(8)----------8--

(8)--------------8--------------|
|------------------6-----------------------------6------------|--10-----------9--(9)----------9--

(9)--------------9--------------|
|---7-------------------------7-----------------------------7-|--10----------10-(10)---------10-(

10)---------10--10--------------|
|--------------7----------------------------------------------|----------------------------------

--------------------------------|
|---5---------------------------------------------------------|---8-----------8--(8)----------8--

(8)----------8---8----------0-2-|
|
|   S    E        S    E        S    E        S    E          S    E         S    E

S    E        +S    E
|--15-------------15-------------15-------------15------------|--15--------------15--------------

15-------------------15---------|
|-(15)r-15b17====(15)r-15b17====(15)r-15b17====(15)r-15b17====|=(15)r-15b17=====(15)r-15b17=====(

15)r-15b17=====(15)r-15b17======|
|-------------------------------------------------------------|----------------------------------

--------------------------------|
|-------------------------------------------------------------|----------------------------------

--------------------------------|
|-------------------------------------------------------------|----------------------------------

--------------------------------|
|-------------------------------------------------------------|----------------------------------

--------------------------------|


  a  E    E        +E   E     +E        E  Q              E   E     +E        E +E     E    +Q
|----3----3--------(3)--3-----(3)----------3----------|-------1-----(1)-------1-(1)----3----(3)--

-|
|-3h=5----3--------(3)--3-----(3)----------3----------|-------1-----(1)-------1-(1)----3----(3)--

-|
|----4----4--------(4)--4-----(4)-------4--4----------|-------2-----(2)-------2-(2)----4----(4)--

-|
|----5----5--------(5)--5-----(5)-------5--5----------|-------3-----(3)-------3-(3)----5----(5)--

-|
|-----------------------------------------------------|-------3-----(3)-------3-(3)----5----(5)--

-|
|----3----3--------(3)--3-----(3)-------3--3----------|---1--------------------------------------

-|
|
|                                                                                      ~~~~~
|    E      S     +E   E     +S   E      E    S       +E   E     +S   E      S  S  Q.
|---15------15----(15)-15----(15)-15------15----------|------------------------------------------

-|
|---15b17---15b17-(15)-15b17-(15)-15b17---15b17-15b17-|-(15)-15b17-(15)-15b17---15p13-15b17------

-|
|-----------------------------------------------------|------------------------------------------

-|
|-----------------------------------------------------|------------------------------------------

-|
|-----------------------------------------------------|------------------------------------------

-|
|-----------------------------------------------------|------------------------------------------

-|


   E        E        E        E        E        E        E        E
|--------------------------------------5----------------------------------|
|-----------------------------------------------5-------------------------|
|--------------------6-----------------------------------6----------------|
|--7--------------------------7-----------------------------------7-------|
|-----------7-------------------------------------------------------------|
|--5----------------------------------------------------------------------|
|
|  |--3--|  |------6-------|  |--3--|  |------6-------|  |------6-------|
|  S  S  S  S  S  S  S  S  S  S  S  S  S  S  S  S  S  S  S  S  S  S  S  S
|-15-13-12-13-15-15-13-12----15-13-12-13-15-15-13-12----13-15-15-13-12----|
|-------------------------15-------------------------15----------------15-|
|-------------------------------------------------------------------------|
|-------------------------------------------------------------------------|
|-------------------------------------------------------------------------|
|-------------------------------------------------------------------------|


   E        E        +E         E        +E         E        E        S    S
|--8--------8--------(8)--------8--------(8)-----------------8------------------|
|--8--------8--------(8)--------8--------(8)-----------------8------------------|
|-10--------9--------(9)--------9--------(9)-----------------9------------------|
|-10-------10-------(10)-------10-------(10)-------10-------10------------------|
|-------------------------------------------------------------------------------|
|--8--------8--------(8)--------8--------(8)--------8--------8--------0----2----|
|
|  |------6-------|   |-------6-------|   |-------6-------|  |-------6--------|
|  S  S  S  S  S  S   S   S  S  S  S  S   S   S  S  S  S  S  S  S  S  S  S    S
|-13-15-15-13-12-----13--15-15-13-12-----13--15-15-13-12----13-15-15-13-12------|
|----------------15------------------15------------------15------------------15-|
|-------------------------------------------------------------------------------|
|-------------------------------------------------------------------------------|
|-------------------------------------------------------------------------------|
|-------------------------------------------------------------------------------|


  a  E        E       +E         E       +E         E           Q
|----3--------3-------(3)--------3-------(3)--------------------3-----|
|-3h=5--------3-------(3)--------3-------(3)--------------------3-----|
|----4--------4-------(4)--------4-------(4)--------4-----------4-----|
|----5--------5-------(5)--------5-------(5)--------5-----------5-----|
|---------------------------------------------------------------------|
|----3--------3-------(3)--------3-------(3)--------3-----------3-----|
|
|    |------6-------|  |-------6-------|  |-------6-------|
|    S  S  S  S  S  S  S   S  S  S  S  S  S   S  S  S  S  S  a  Q
|---13-15-15-13-12----13--15-15-13-12----13--15-15-13-12----13h15b17--|
|------------------15-----------------15-----------------15-----------|
|---------------------------------------------------------------------|
|---------------------------------------------------------------------|
|---------------------------------------------------------------------|
|---------------------------------------------------------------------|


   E      E  +E      E       +E      E       +Q
|---------1--(1)-----1-------(1)-----3-------(3)-------------|
|---------1--(1)-----1-------(1)-----3-------(3)-------------|
|---------2--(2)-----2-------(2)-----4-------(4)-------------|
|---------3--(3)-----3-------(3)-----5-------(5)-------------|
|---------3--(3)-----3-------(3)-----5-------(5)-------------|
|--1---------------------------------------------------------|
|
|                    |--3--|         |--3--|         |--3--|
|  E     +E   E      S  S  S  E      S  S  S  E      S  S  S
|-15b17r(15)-15b17==15r15p12-15b17==15r15p12-15b17==15r15p12-|
|------------------------------------------------------------|
|------------------------------------------------------------|
|------------------------------------------------------------|
|------------------------------------------------------------|
|------------------------------------------------------------|


                                                    H.=H
   E      E        E      E        E     E   E  E     E   E     +E      E     +E      E     E

   S     S
|----------------------------------5--------------|---8---8-----(8)-----8-----(8)-----------8----

------------|
|----------------------------------------5--------|---8---8-----(8)-----8-----(8)-----------8----

------------|
|------------------6-------------------------6----|--10---9-----(9)-----9-----(9)-----------9----

------------|
|--7----------------------7---------------------7-|--10--10----(10)----10----(10)----10----10----

------------|
|---------7---------------------------------------|----------------------------------------------

------------|
|--5----------------------------------------------|---8---8-----(8)-----8-----(8)-----8-----8----

----0-----2-|
|
|         |--3--|         |--3--|
|  E      S  S  S  E      S  S  S  Q        +Q       +E   S  S   S   S  S  S   S   S  S  S  S  T

T  E
|-15b17==15r15p12-15b17==15r15p12-15b19====(15)r==|=(15)-15p12---x--15p12-12------------------10-

12-12b14====|
|-------------------------------------------------|---------------------------15--13-12s10-------

------------|
|-------------------------------------------------|----------------------------------------12----

------------|
|-------------------------------------------------|----------------------------------------------

------------|
|-------------------------------------------------|----------------------------------------------

------------|
|-------------------------------------------------|----------------------------------------------

------------|


  a   E  E  +E  E    +E      E     Q                E        E        E        E        E

E     Q
|-----3--3--(3)-3----(3)-----------3-------------|-----------1-----------------1-----------------

3----------------|
|-3h==5--3--(3)-3----(3)-----------3-------------|-----------1-----------------1-----------------

3----------------|
|-----4--4--(4)-4----(4)-----4-----4-------------|-----------2-----------------2-----------------

4----------------|
|-----5--5--(5)-5----(5)-----5-----5-------------|-----------3-----------------3-----------------

5----------------|
|------------------------------------------------|-----------3-----------------3-----------------

5----------------|
|-----3--3--(3)-3----(3)-----3-----3-------------|--1--------------------------------------------

-----------------|
|
|    +Q     +E    S  S   S  S  S  S  S  S     S    S     S  S     S  S     S  S     S  S  S

S  S  S  E  S
|---(12)r==(12)-------------------------------10-|-------10-------10-------10-------10-----------

-----------------|
|-----------------15-13--15-13----------13b15----|-13b15----13b15----13b15----13b15----13-15b18-1

5-13-------------|
|------------------------------14-12-14----------|-----------------------------------------------

-----15-12\------|
|------------------------------------------------|-----------------------------------------------

-----------------|
|------------------------------------------------|-----------------------------------------------

-----------------|
|------------------------------------------------|-----------------------------------------------

-----------------|


  Q=73
   S  S  S  T  T  T  T  T  T  T  T  T  T  T  T  T  T  T  T  S  S  S  S  S
|-------------------------19-21-22-21-22-21-19----------------------------|
|----------------19-21-22----------------------22-21-19-------------------|
|-------18-19-21----------------------------------------21-19-18-19-18----|
|-19-21----------------------------------------------------------------21-|
|-------------------------------------------------------------------------|
|-------------------------------------------------------------------------|
|
|  W
|-------------------------------------------------------------------------|
|-------------------------------------------------------------------------|
|--2----------------------------------------------------------------------|
|--2----------------------------------------------------------------------|
|--0----------------------------------------------------------------------|
|-------------------------------------------------------------------------|


   S    S  S        S    S    S    s    s    T T   T    T  T   S.  +Q
|-----------------------------------------------------------------------|
|-----------------------------------------------------------------------|
|---------------------------------12---12---10-9---7----------14--(14)--|
|-19---18----------------------------------------------10-11------------|
|---------21-------19---17----------------------------------------------|
|----------------------------21-----------------------------------------|
|
|                        |--3---|  |--3---|  |---3---|
|  S    S  T   +T   T T  S S    S  S S    S  S   S   S     Q.
|-----------------------------------------------------------------------|
|-------5---------------------------------------------------------------|
|--7b9-----7b9r(7)--5----5---------------------------------2------------|
|---------------------7----7----5--------------------------2------------|
|----------------------------------7p5p===3h=5p==3p==0-----0------------|
|-----------------------------------------------------------------------|


   T   s  s  S.  +Q   Q   Q           W
|-----------------------------------|------*|
|-----------------------------------|------*|
|-----------12--(12)-----14---------|------*|
|-10--11-11--------------14---------|------*|
|------------------------12---------|------*|
|-----------------------------------|------*|
|
|                                >
| +H.                     E +S. +T    W
|-----------------------------------|------*|
|-----------------------------------|------*|
|-(2)---------------------2-(2)-(2)-|------*|
|-(2)---------------------2-(2)-(2)-|------*|
|-(0)---------------------0-(0)-(0)-|------*|
|-----------------------------------|------*|


Duration Legend
---------------
W - whole; H - half; Q - quarter; E - 8th; S - 16th; T - 32nd; X - 64th; a - acciaccatura
+ - note tied to previous; . - note dotted; .. - note double dotted
Uncapitalized letters represent notes that are staccato (1/2 duration)
Irregular groupings are notated above the duration line
Duration letters will always appear directly above the note/fret number it represents the
duration for.  Duration letters with no fret number below them represent rests.  Multi-
bar rests are notated in the form Wxn, where n is the number of bars to rest for.  Low
melody durations appear below the staff

Tablature Legend
----------------
 h   - hammer-on
 p   - pull-off
 b   - bend
 pb  - pre-bend
 r   - bend release (if no number after the r, then release immediately)
 /\  - slide into or out of (from/to "nowhere")
 s   - legato slide
 S   - shift slide
 n>  - natural harmonic
[n]  - artificial harmonic
n(n) - tapped harmonic
 ~   - vibrato
 tr  - trill
 T   - tap
 TP  - trem. picking
 PM  - palm muting
\n/  - tremolo bar dip; n = amount to dip
 \n  - tremolo bar down
 n/  - tremolo bar up
/n\  - tremolo bar inverted dip
 =   - hold bend; also acts as connecting device for hammers/pulls
  >  - volume swell (louder/softer)
 x   - on rhythm slash represents muted slash
 o   - on rhythm slash represents single note slash

Misc Legend
-----------
 |  - bar
||  - double bar
||o - repeat start
o|| - repeat end
*|  - double bar (ending)
 :  - bar (freetime)
 $  - Segno
 &  - Coda
Tempo markers -  E  ./Q/Q./H  .> = BPM(8/16=s8/s16), where s8 = swing 8ths, s16 = swing 16ths

Добавлено: 02.07.2013
Другие материалы по этой песне:

Страница создана 22.02.2012
http://primanota.ru/dream-theater/funeral-for-a-friend-chords.htm
Привет, Гость.
Предлагаем пройти революционный курс по гитаре.
Подарок от PrimaNota.Ru, забирай!