PrimaNota.ru - самый крупный в мире бесплатный архив песенных текстов, аккордов, табулатур и нот


Dream Theater - Hells Kitchen - аккорды и текст, таба, бас-таба, видео

Регистрация Запомнить меня
Войти через:  Facebook Google Twitter Vk Yandex Mail.ru

Dream Theater - Hells Kitchen - аккорды и текст, таба, бас-таба, видео

Печатать
Просмотров: 250
Авторы музыки: Dream Theater

Hells Kitchen
Dream Theater
Hells kitchen
By DT
Tabbed by : bighabit69@iamwasted.com (silkmoth)
: ahh theres tons of time changes in this. Its a long one. Sum parts where
pretty hard to hear, but im pretty sure its accurate. Any errors please let me know
and i will try and fix them::
  
  Eletric piano arranged for GT
|-----7-------7---|-----10-------10---|-----9-------9--|----------------|
|---0---0---0---0-|-7--------7--------|----------------|-11---9-(9)-----|
|-----------------|---7----7---7----7-|---6---6---6----|-------------7--|
|-----------------|-------------------|----------------|--8---6-(6)-----|
|-7-------7-------|-------------------|-7-------7------|-------------5--|
|-----------------|-------------------|----------------|----------------|
|
| Gtr I
|-----------------|-------------------|----------------|----------------|
|-----------------|-------------------|----------------|-11---9-(9)-----|
|-----------------|-------------------|----------------|-------------7--|
|-----------------|-------------------|----------------|--8---6-(6)-----|
|-----------------|-------------------|----------------|-------------5--|
|-----------------|-------------------|----------------|----------------|
|-----7-------7---|-------10-------10---|-------8-------8---|-----6-----------||
|---0---0---0---0-|--7---------7--------|-------------------|-------------7---||
|-----------------|-----7----7---7----7-|-----5---5---5---5-|-----------6-----||
|-----------------|---------------------|-------------------|---8---8---------||
|-7-------7-------|---------------------|--7--------7-------|-7-------7-------||
|-----------------|---------------------|-------------------|-----------------||
|
|-----------------|---------------------|-------------------|-----------------||
|-----------------|---------------------|-------------------|-----------------||
|-9---------------|-(9)-----------------|-(9)---------------|-----------------||
|-----------------|---------------------|-------------------|-8-------4-------||
|-7---------------|-(7)-----------------|-(7)---------------|-----------------||
|-----------------|---------------------|-------------------|-----------------|||-----------------|-------------------|
|-----------------|-------------------|
|-3-------4-------|--3--------4-------|
|-----5-------5---|-------6-------6---|
|-----------------|-------------------|
|-----------------|-------------------|
|
|-0---------------|-(0)---------------|
|-0---------------|-(0)---------------|
|-3---------------|-(3)---------------|
|-2---------------|-(2)---------------|
|-----------------|-------------------|
|-----------------|-------------------|
|
| Gtr VI
|-----------------|-------------------|
|-----------------|-------------------|
|-----------------|-------------------|
|-----------------|-------------------|
|-----------------|-------------------|
|-----------------|-------------------|
|--------------4------|---------------------4-------|
|------------5----5---|-------------------5---------|
|-3-------4---------4-|--3------------4--------4----|
|-----6---------------|----------5----------------6-|
|---------------------|-----------------------------|
|---------------------|-----------------------------|
|
|-0-------------------|-(0)-------------------------|
|-0-------------------|-(0)-------------------------|
|-3-------------------|-(3)-------------------------|
|-2-------------------|-(2)-------------------------|
|---------------------|-----------------------------|
|---------------------|-----------------------------|
|
|----------------24---|-----------------------24----|
|---------------------|-24--24--24---24--24------24-|
|---------------------|-----------------------------|
|---------------------|-----------------------------|
|---------------------|-----------------------------|
|---------------------|-----------------------------|
  
  Gtr II
|-------------------|-------------------|
|------0--------0---|------0--------0---|
|----2--------2-----|----2--------2-----|
|--2--------2-------|--0--------0-------|
|-------------------|-------------------|
|-------------------|-------------------|
|-----------------------|-----------------------|
|------0----------0-----|------0----------0-----|
|----2---2------2---2---|----2---2------2---2---|
|--2-------2--2-------2-|--2-------2--2-------2-|
|-----------------------|-----------------------|
|-----------------------|-----------------------|
|-------------------|-------------------|
|------0--------0---|------0--------0---|
|----2--------2-----|----2--------2-----|
|--2--------2-------|--0--------0-------|
|-------------------|-------------------|
|-------------------|-------------------|
|-------------------------|---------------------------|
|-------0-----------0-----|---------0-----------0-----|
|-----2---2-------2---2---|-------2---2-------2---2---|
|---2-------2---2-------2-|-----2-------2---2-------2-|
|-------------------------|---------------------------|
|-------------------------|---------------------------|
|
| Gtr III
|
Добавлено: 14.07.2012
Другие материалы по этой песне:

Страница создана 22.02.2012
http://primanota.ru/dream-theater/hells-kitchen-chords.htm
Привет, Гость.
Предлагаем пройти революционный курс по гитаре.
Подарок от PrimaNota.Ru, забирай!