PrimaNota.ru - самый крупный в мире бесплатный архив песенных текстов, аккордов, табулатур и нот


Dope - Nothing For Me Here - текст песни, таба, бас-таба, видео

Регистрация Запомнить меня
Войти через:  Facebook Google Twitter Vk Yandex Mail.ru

Dope - Nothing For Me Here - текст песни, таба, бас-таба, видео

Печатать
Просмотров: 504
-------------------------------------------------------------------------------
                             NOTHING FOR ME HERE - Dope
-------------------------------------------------------------------------------


Tuning:Drop D
        PM----
|------|--------------------------------------------------------|
|------|--------------------------------------------------------|
|------|--------------------------------------------------------|Main Riff
|------|--------------------------------------------------------|
|--15\-|--------4-3---3--10-11---10-11--6----3--6--8------------|
|--15\-|-3-3-3--4-3---3--10-11---10-11--6----3--6--8------------|

Intro Solo                                 
    fade in                                                bend then release
|---------------------------------15~------16~--------15~--------15b---13---|
|-----<11~----------------13~-----------------------------------------------|
|---------------------------------------------------------------------------|
|-----------------------------15-------15-------15--------15----------------|
|---------------------------------------------------------------------------|
|---------------------------------------------------------------------------|
                                                           
                                                            
|-----------------------------------------------------------------------15b-|
|---------------------------------------------------------------------------|
|------------------------------------13-13-13-13-15-15-15-15-17-17-17-17----|
|13-13-13-13-15-15-15-15-17-17-17-17----------------------------------------|
|---------------------------------------------------------------------------|
|---------------------------------------------------------------------------|

Verse
|--------------------------------------------------------------|
|--------------------------------------------------------------|
|--------------------------------------------------------------|
|----------------------------vocal/bass/drums fill-------------|Verse 1
|---3--4--6--3---3\--------------------------------------------|x 2
|---3--4--6--3---3\--------------------------------------------|

|--------------------------------------------------------------|
|--------------------------------------------------------------|
|--------------------------------------------------------------|Other Part of 
|--------------------------------------------------------------|Verse 1
|--------------------------------------------------------------|
|---3--4--6--3---3--10--11---10--11--6---3--6--8---------------|dubbed over

|---------------------------------------------------------------------|
|---------------------------------------------------------------------|
|---------------------------------------------------------------------| 
|---------------------------------------------------------------------|
|-------------------------------------6----6----6---------------------|
|---3--4--6--3---3--10--11---10--11---6----6----6---------------------|

|---------------------------------------------------------------------|
|---------------------------------------------------------------------|
|---------------------------------------------------------------------| 
|---------------------------------------------------------------------|
|-------------------------------------------------------------15\-----|
|---3--4--6--3---3--10--11---10--11--6---3--6--8--------------15\-----|

Chorus (Main riff 4 times)

Verse 2 (same as Verse 1 but with this dubbed over the first half)
  Palm Mute---------------------------------------
|--------------------------------------------------------------|
|--------------------------------------------------------------|
|---10----10----10----8----10----10----10----8-----------------|
|------10----10----10---10----10----10----10---10--------------|
|--------------------------------------------------------------|
|--------------------------------------------------------------|

|--------------------------------------------------------------|
|--------------------------------------------------------------|
|---10----10----10----8----10----10----8-----8-----------------|
|------10----10----10---10----10----10----10---10--------------|
|--------------------------------------------------------------|
|--------------------------------------------------------------|

Chorus 

Bridge
|--------|-------------------------------------------|
|--------|-------------------------------------------|
|--------|-------------------------------------------|
|--------|--------10--11-10-8------8-----------------|
|--15\---|---------------------11-----11--10--6------|
|--15\---|-------------------------------------------|

|-----------------------------------------------------------------------|
|-----------------------------------------------------------------------|
|-----------------------------------------------------------------------|
|------------------10---------------------------10----------------------|
|-----8--8--11--8------8--11--10---8--8--11--8------8--10--10-----------|
|-----------------------------------------------------------------------|

|-----------------------------------------------------------------------|
|-----------------------------------------------------------------------|
|-----------------------------------------------------------------------|
|------------------10---------------10--11-10-8------8------------------|
|-----8--8--11--8------8--11--10-----------------11-----11--10--6-------|
|-----------------------------------------------------------------------|

Solo and Stuff

END


I'll tab the rest later... Feedback is kewl...


almost done...

| /  slide up
| \  slide down
| h  hammer-on
| p  pull-off
| ~  vibrato
| +  harmonic
| x  Mute note
===============================================================================
Добавлено: 12.05.2012
Другие материалы по этой песне:

Страница создана 03.03.2012
http://primanota.ru/dope/nothing-for-me-here-chords.htm
Привет, Гость.
Предлагаем пройти революционный курс по гитаре.
Подарок от PrimaNota.Ru, забирай!