PrimaNota.ru - самый крупный в мире бесплатный архив песенных текстов, аккордов, табулатур и нот


Dope - Die Mf Die - текст песни, таба, бас-таба, видео

Регистрация Запомнить меня
Войти через:  Facebook Google Twitter Vk Yandex Mail.ru

Dope - Die Mf Die - текст песни, таба, бас-таба, видео

Печатать
Просмотров: 1152
Dope - Die Mother fucker die
Ok yall' this is merely a guide really.I know i have the very first part right.The rest
a guide from what i've heard from ear.
The tuning is drop D.The intro starts with like some fuzzy recording n stuff then this
e-----------------------------------------------------|
b-----------------------------------------------------|
g-----------------------------------------------------|
d-----------------------------------------------------|
a--3-0--0-3-0-0-0-3-0-3-0-----------------------------|
e--3-0--0-3-0-0-0-3-0-3-0-----------------------------|
Palm mute  throughout.
e-----------------------------------------------------|
b-----------------------------------------------------|
g-----------------------------------------------------|
d-----------------------------------------------------|
a--------3-0--0-3-0-----3--3--0-----------------------|
e-3^--3^-3-0--0-3-0--3^-3--3--0-----------------------|

Rah!!!


Ok thats all i have has a guide.There are no other tabs out for this so this should help
alot.From what i have here some one can upgrade it and make it into a whole song.But im
sure this is all you will need.Please rate and comment
Добавлено: 28.07.2012
Другие материалы по этой песне:

Страница создана 23.02.2012
http://primanota.ru/dope/die-mf-die-chords.htm
Привет, Гость.
Предлагаем пройти революционный курс по гитаре.
Подарок от PrimaNota.Ru, забирай!