PrimaNota.ru - самый крупный в мире бесплатный архив песенных текстов, аккордов, табулатур и нот


Dope - What About - текст песни, таба, бас-таба, видео

Регистрация Запомнить меня
Войти через:  Facebook Google Twitter Vk Yandex Mail.ru

Dope - What About - текст песни, таба, бас-таба, видео

Печатать
Просмотров: 193
this tab was sent to me by a friend so i dont take any credit


WHAT ABOUT...
                               As recorded by Dope
                           (From the 2001 Album LIFE)

Words and Music by Edsel Dope
Arranged by Edsel Dope
Transcribed by Evangelion04

Gtr I (C# G# C# F# A# D#) - 'Virus'
Gtr II (C# G# C# F# A# D#) - 'Background Guitar'

  Q=100
 4/4
  Gtr I
  Wx5
|--------|
|--------|
|--------|
|--------|
|--------|
|--------|


    Gtr II
     H     H       W
||--17----------|--------||
||o-------18----|-17----o||
||--------------|--------||
||--------------|--------||
||o-------------|-------o||
||--------------|--------||


  Gtr I
  Wx2
|--------|
|--------|
|--------|
|--------|
|--------|
|--------|


       PM--|   PM|           PM--------|
  Q.   S E S S S E. S   Q.   S E S S S E. S
|---------------------|---------------------
|---------------------|---------------------
|---------------------|---------------------
|---------------------|---------------------
|------0-0-0---0-0----|------0-0-0---0-0----
|------0-0-0---0-0----|------0-0-0---0-0----


  Wx2
|--------|
|--------|
|--------|
|--------|
|--------|
|--------|


       PM--|   PM|           PM------|
  Q.   S E S S S E. S   Q.   S E S S S Q
|---------------------|-------------------|
|---------------------|-------------------|
|---------------------|-------------------|
|---------------------|-------------------|
|------0-0-0---0-0----|------0-0-0---0-0--|
|------0-0-0---0-0----|------0-0-0---0-0--|


    E E Q  E E Q    E E E E Q  Q
||----------------|----------------||
||o---------------|---------------o||
||------2------5--|---------6--9---||
||--0-0-0--3-3-3--|-7-7-7-7-x--x---||
||o-0-0----3-3----|-7-7-7-7-4--7--o||
||--0-0----3-3----|-7-7-7-7--------||


  Wx3
|--------|
|--------|
|--------|
|--------|
|--------|
|--------|


       PM--|   PM|           PM--------|
  Q.   S E S S S E. S   Q.   S E S S S E. S
|---------------------|---------------------
|---------------------|---------------------
|---------------------|---------------------
|---------------------|---------------------
|------0-0-0---0-0----|------0-0-0---0-0----
|------0-0-0---0-0----|------0-0-0---0-0----


  Wx2
|--------|
|--------|
|--------|
|--------|
|--------|
|--------|


       PM--|   PM|           PM------|
  Q.   S E S S S E. S   Q.   S E S S S Q
|---------------------|-------------------|
|---------------------|-------------------|
|---------------------|-------------------|
|---------------------|-------------------|
|------0-0-0---0-0----|------0-0-0---0-0--|
|------0-0-0---0-0----|------0-0-0---0-0--|


    Gtr II
     H       H         W
||--17--------------|-----------------||
||o---------18------|-17-------------o||
||------------------|-----------------||
||------------------|-----------------||
||o-----------------|----------------o||
||------------------|-----------------||
|
|   Gtr I
|    E E Q   E E Q     E E E E Q  Q
||------------------|-----------------||
||o-----------------|----------------o||
||-------2-------5--|----------6--9---||
||---0-0-0---3-3-3--|--7-7-7-7-x--x---||
||o--0-0-----3-3----|--7-7-7-7-4--7--o||
||---0-0-----3-3----|--7-7-7-7--------||


    Gtr I
    PM|   PM|   PM  PM|           PM|   PM|   PM  PM|
    S S S S S S S S S S E S S E   S S S S S S S S S S E S S S S   3x
||------------------------------|---------------------------------||
||o-----------------------------|--------------------------------o||
||------------------------------|---------------------------------||
||------------------------------|---------------------------------||
||o-5-5-5-5-5-5-5-5-5-5-5-0h5-5-|-7-7-7-7-7-7-7-7-7-7-7-7-8-7-8--o||
||------------------------------|---------------------------------||


  PM|   PM|   PM  PM|
  S S S S S S S S S S E S S E   S S S H.      S
|-----------------------------|-----------------|
|-----------------------------|-----------------|
|-----------------------------|-----------------|
|-----------------------------|-----------------|
|-5-5-5-5-5-5-5-5-5-5-5-0h5-5-|-7---7-----------|
|-----------------------------|-----------------|


                PM----|
    S S S S S S S S S S S S S S E  4x
||---------------------------------||
||o-------------------------------o||
||---------------------------------||
||---------------------------------||
||o-5-3-0-----------------------3-o||
||--------5-3-0-3-5-3-5-3-0-3-5----||


    S E S S S S S S S S S S S E
||-------------------------------||
||o-----------------------------o||
||-------------------------------||
||--0-0-0---0---0----------------||
||o-0-0-0---0---0-------------3-o||
||--0-0-0---0---0-3-5-3-0-3-5----||


              PM----|
  S S S S S S S S S S S S S S E
|-------------------------------|
|-------------------------------|
|-------------------------------|
|-------------------------------|
|-5-3-0-----------------------3-|
|-------5-3-0-3-5-3-5-3-0-3-5---|


  S E S S S S S Q  Q
|----------------------|
|----------------------|
|----------------------|
|-0-0-0---0---0-3--2--|
|-0-0-0---0---0-3--2--|
|-0-0-0---0---0-3--2--|


  Wx6
|--------|
|--------|
|--------|
|--------|
|--------|
|--------|


  Gtr II
   H     H       H     +H
|-------------|---------------
|-------------|---------------
|-------10----|---------------
|-12----------|-11----(11)----
|-------------|---------------
|-------------|---------------


  Gtr II
   H        H          H        +H
|-------------------|---------------------|
|-------------------|---------------------|
|----------10-------|---------------------|
|-12----------------|-11-------(11)-------|
|-------------------|---------------------|
|-------------------|---------------------|
|
| Gtr I
|  PM-----------------------------------|
|  E E E E  E E E E    E E E E   E  E E E
|-------------------|---------------------|
|-------------------|---------------------|
|-------------------|---------------------|
|-------------------|---------------------|
|--0-0-0-0--3-3-3-3-|--7-7-7-7---7--7-7-7-|
|--0-0-0-0--3-3-3-3-|--7-7-7-7---7--7-7-7-|


   H        H          H        +H
|-------------------|---------------------|
|-------------------|-10-------(10)-------|
|----------10-------|---------------------|
|-12----------------|---------------------|
|-------------------|---------------------|
|-------------------|---------------------|
|
|  PM-----------------------------------|
|  E E E E  E E E E    E E E E   E  E E E
|-------------------|---------------------|
|-------------------|---------------------|
|-------------------|---------------------|
|-------------------|---------------------|
|--0-0-0-0--3-3-3-3-|--7-7-7-7---7--7-7-7-|
|--0-0-0-0--3-3-3-3-|--7-7-7-7---7--7-7-7-|


     H       H         W
||--17--------------|-----------------||
||o---------18------|-17-------------o||
||------------------|-----------------||
||------------------|-----------------||
||o-----------------|----------------o||
||------------------|-----------------||
|
|    E E Q   E E Q     E E E E Q  Q
||------------------|-----------------||
||o-----------------|----------------o||
||-------2-------5--|----------6--9---||
||---0-0-0---3-3-3--|--7-7-7-7-x--x---||
||o--0-0-----3-3----|--7-7-7-7-4--7--o||
||---0-0-----3-3----|--7-7-7-7--------||


    Gtr I
    PM|   PM|   PM  PM|           PM|   PM|   PM  PM|
    S S S S S S S S S S E S S E   S S S S S S S S S S E S S S S   4x
||------------------------------|---------------------------------||
||o-----------------------------|--------------------------------o||
||------------------------------|---------------------------------||
||------------------------------|---------------------------------||
||o-5-5-5-5-5-5-5-5-5-5-5-0h5-5-|-7-7-7-7-7-7-7-7-7-7-7-7-8-7-8--o||
||------------------------------|---------------------------------||


    Gtr II
     H       H         W              4x
||--17--------------|-----------------||
||o---------18------|-17-------------o||
||------------------|-----------------||
||------------------|-----------------||
||o-----------------|----------------o||
||------------------|-----------------||
|
|   Gtr I
|    E E Q   E E Q     E E E E Q  Q   4x
||------------------|-----------------||
||o-----------------|----------------o||
||-------2-------5--|----------6--9---||
||---0-0-0---3-3-3--|--7-7-7-7-x--x---||
||o--0-0-----3-3----|--7-7-7-7-4--7--o||
||---0-0-----3-3----|--7-7-7-7--------||


  H    Q  S S S S
|-----------------*|
|-----------------*|
|-----------------*|
|---------6---6---*|
|---------6---6---*|
|---------6---6---*|


Duration Legend
---------------
W - whole; H - half; Q - quarter; E - 8th; S - 16th; T - 32nd; X - 64th; a - acciaccatura
+ - note tied to previous; . - note dotted; .. - note double dotted
Uncapitalized letters represent notes that are staccato (1/2 duration)
Irregular groupings are notated above the duration line
Duration letters will always appear directly above the note/fret number it represents the
duration for.  Duration letters with no fret number below them represent rests.  Multi-
bar rests are notated in the form Wxn, where n is the number of bars to rest for.  Low
melody durations appear below the staff

Tablature Legend
----------------
 h   - hammer-on
 p   - pull-off
 b   - bend
 pb  - pre-bend
 r   - bend release (if no number after the r, then release immediately)
 /  - slide into or out of (from/to "nowhere")
 s   - legato slide
 S   - shift slide
  - natural harmonic
[n]  - artificial harmonic
n(n) - tapped harmonic
 ~   - vibrato
 tr  - trill
 T   - tap
 TP  - trem. picking
 PM  - palm muting
n/  - tremolo bar dip; n = amount to dip
 n  - tremolo bar down
 n/  - tremolo bar up
/n  - tremolo bar inverted dip
 =   - hold bend; also acts as connecting device for hammers/pulls
 <>  - volume swell (louder/softer)
 x   - on rhythm slash represents muted slash
 o   - on rhythm slash represents single note slash

Misc Legend
-----------
 |  - bar
||  - double bar
||o - repeat start
o|| - repeat end
*|  - double bar (ending)
 :  - bar (freetime)
 $  - Segno
 &  - Coda
Tempo markers -  = BPM(8/16=s8/s16), where s8 = swing 8ths, s16 = swing 16ths

Добавлено: 02.07.2012
Другие материалы по этой песне:

Страница создана 06.06.2012
http://primanota.ru/dope/what-about-chords.htm
Привет, Гость.
Предлагаем пройти революционный курс по гитаре.
Подарок от PrimaNota.Ru, забирай!