PrimaNota.ru - самый крупный в мире бесплатный архив песенных текстов, аккордов, табулатур и нот


Disturbed - Two Worlds - текст песни, таба, видео

Регистрация Запомнить меня
Войти через:  Facebook Google Twitter Vk Yandex Mail.ru

Disturbed - Two Worlds - текст песни, таба, видео

Печатать
Просмотров: 245
Band:Disturbed
Song:Two Worlds
Year:2005
Album:Unreleased

h=hammer-on
pull-off
b=bend
/or\=slide
~=vibrato
P.M.=palm mute

Rumor is broken, it's not another Genesis cover. It's my new fave over Monster, don't 
the solo but could use some help on it. Got as close as I could get, I think it's about a 
or 4 star, thanks.

Intro
Guitar 1
e------------------------------------------------------------|
B------------------------------------------------------------|
G------------------------------------------------------------|
D------------------------------------------------------------|
A-5-3-5--5-3-5--5-3-6--5-3-6-----5-3-5--5-3-5--5-3-6--5-3-6--|
D----------------------------5-5-----------------------------|

Guitar 2:It fades in aswell.
e------------------------------------------------------------|
B------------------------------------------------------------|
G--------------------------------7-5-7--7-5-7--7-5-8--7-5-8--|
D------------------------------------------------------------|
A------------------------------------------------------------|
D------------------------------------------------------------|

Intro 2
e------------------------------------------|
B------------------------------------------|
G------------------------------------------|
D-3-3-3-3-5-5-5-5-3-3-3-3-6-6-6-6-3-3-3-3--|
A-3-3-3-3-5-5-5-5-3-3-3-3-6-6-6-6-3-3-3-3--|
D-3-3-3-3-5-5-5-5-3-3-3-3-6-6-6-6-3-3-3-3--|

e------------------------------------|
B------------------------------------|
G------------------------------------| X2
D-7/5\7--7/5\7-0-0-7/5\8--7/5\8-0-0--|
A-5/3\5--5/3\5-0-0-5/3\6--5/3\6-0-0--|
D--------------0-0--------------0-0--|
P.M.           . .              . .

e------------------------------------------|
B------------------------------------------|
G------------------------------------------|
D-3-3-3-3-5-5-5-5-3-3-3-3-6-6-6-6-3-3-3-3--|
A-3-3-3-3-5-5-5-5-3-3-3-3-6-6-6-6-3-3-3-3--|
D-3-3-3-3-5-5-5-5-3-3-3-3-6-6-6-6-3-3-3-3--|


Verse
Guitar 1
e-------------------------------------------------|
B-------------------------------------------------|
G-------------------------------------------------| X2
D-3--3--3--3--5--5--5--5--3--3--3--3--6--6--6--6--|
A-3--3--3--3--5--5--5--5--3--3--3--3--6--6--6--6--|
D-3--3--3--3--5--5--5--5--3--3--3--3--6--6--6--6--|

Guitar 2
e-------------------------------------------------|
B-------------------------------------------------|
G------7----------7----------7---------7----------|
D-5----------5----------5----------5--------------|
A-------------------------------------------------|
D-------------------------------------------------|

Pre-Chorus
e-------------------------------------------------------|
B-------------------------------------------------------|
G-------------------------------------------------------|
D-5------3-----3-5-3-6-3-33-3-5-3-6-3-33-3-5-3-6-3-55---|
A-5------3-----3-5-3-6-3-33-3-5-3-6-3-33-3-5-3-6-3-33---|
D-5------3-----3-5-3-6-3-33-3-5-3-6-3-33-3-5-3-6-3------|

Chorus:Play this four times total.(A+B+A+B+A+B+A+C)
~A~                      ~B~                    ~C~
e------------------------|----------------------|-----------|
B------------------------|----------------------|-----------|
G------------------------|----------------------|-----------|
D-3--5--3--3--3-3-3-3-00-|-3--5--3--3-3-3-3-00--|-5-666666--|
A-3--5--3--3--3-3-3-3-00-|-3--5--3--3-3-3-3-00--|-5-666666--|
D-3--5--3--3--3-3-3-3-00-|-3--5--3--3-3-3-3-00--|-5-666666--|
P.M.                  ..                    ..

e------------|
B------------|
G------------|
D-0~~~~~~~~--|
A-0~~~~~~~~--|
D-0~~~~~~~~--|

~PLAY VERSE~

~PLAY PRE-CHORUS~

~PLAY CHORUS~

Solo:Need help with it, who wants to? I'll get it up soon.

Here's the Guitar 2 for it though:Repeat as needed.
e-----------------------------|
B-----------------------------|
G---7-7----5-5----7-7----5-5--|
D-5------3------5------3------|
A-----------------------------|
D-----------------------------|

Breakdown:Play like four times?
e------------------------------------|
B------------------------------------|
G------------------------------------|
D-----7-7-----5-5-----7-7-----5-5----|
A------------------------------------|
D-565-----565-----565-----565--------|

e-----------------|
B-----------------|
G-----------------|
D-5------3--------|
A-5------3--------|
D-5------3--------|

~PLAY CHORUS TWICE~


Suggestions, corrections, e-mail me or leave a comment. Tabbed by irishmatt1992.
Добавлено: 18.04.2012
Другие материалы по этой песне:

Страница создана 14.03.2012
http://primanota.ru/disturbed/two-worlds-chords.htm
Привет, Гость.
Предлагаем пройти революционный курс по гитаре.
Подарок от PrimaNota.Ru, забирай!