PrimaNota.ru - самый крупный в мире бесплатный архив песенных текстов, аккордов, табулатур и нот


Disturbed - Serpentine - текст песни, таба, видео

Регистрация Запомнить меня
Войти через:  Facebook Google Twitter Vk Yandex Mail.ru

Disturbed - Serpentine - текст песни, таба, видео

Печатать
Просмотров: 332
This is my very first tab, I'm not so sure on the solo but I'll update once I work
on it some more. Please rate this and tell me how I did. :)

Tabbed by:Victor827
Email:Creature827@yahoo.com

Tuning:CGCFAD

D|---------------------------------------------------------------------------|
A|---------------------------------------------------------------------------|
F|---------------------------------------------------------------------------|
C|---------------------------------------------------------------------------|
G|7-7-7-7-7-7-5-5-5-5-5-5-7-7-7-7-8-8-8-8-8-8-7-7-7-7-7-7-8-8-8-8-12-12-12---|
C|---------------------------------------------------------------------------|

D|---------------------------------------------------------------------------|
A|---------------------------------------------------------------------------|
F|---------------------------------------------------------------------------|
C|---------------------------------------------------------------------------|
G|12-12-12-8-8-8-8-8-8-10-10-10-10-10-10-10-10-10-10-10-10-10-10-10-10-10-10-|
C|---------------------------------------------------------------------------|

D|---------------------------------------------------------------------------|
A|---------------------------------------------------------------------------|
F|---------------------------------------------------------------------------|
C|---------------------------------------------------------------------------|
G|10-10----------------------------------------------------------------------|
C|---------------------------------------------------------------------------|

D|---------------------------------------------------------------------------|
A|---------------------------------------------------------------------------|
F|---------------------------------------------------------------------------|
C|---------------------------------------------------------------------------|
G|7-7-7-7-7-7-5-5-5-5-5-5-7-7-7-7-8-8-8-8-8-8-7-7-7-7-7-7-8-8-8-8-12-12-12---|
C|---------------------------------------------------------------------------|

D|---------------------------------------------------------------------------|
A|---------------------------------------------------------------------------|
F|---------------------------------------------------------------------------|
C|---------------------------------------------------------------------------|
G|12-12-12-8-8-8-8-8-8-10-10-10-10-5-5-5-5-5-5-5-5-5-5-5-5-5-5-5-5-----------|
C|---------------------------------------------------------------------------|


D|---------------------------------------------------------------------------|
A|---------------------------------------------------------------------------|
F|---------------------------------------------------------------------------|
C|0--------------------------------------------------------------------------|
G|0--------------------------------------------------------------------------|
C|---------------------------------------------------------------------------|

D|---------------------------------------------------------------------------|
A|---------------------------------------------------------------------------|
F|---------------------------------------------------------------------------|
C|---------------------------------------------------------------------------|
G|10\9-----9-----9---9-----9\7---5/10\9-----9-----9---9-----9-7---5----------|
C|------0-----0----0----0------0---------0-----0----0----0------0------------|

D|------------------------------------------------------------------------------|
A|------------------------------------------------------------------------------|
F|------------------------------------------------------------------------------|
C|------------------------------------------------------------------------------|
G|7/8-----8-----8---8-----8\7---77/10-----10----10---5-5---5-5---5--------------|
C|-----0-----0----0----0------0--------0-----0-----0-----0-----0----------------|

D|---------------------------------------------------------------------------|
A|---------------------------------------------------------------------------|
F|---------------------------------------------------------------------------|
C|8-----------------10---------------5----------------3----------------------|
G|8-----------------10---------------5----------------3----------------------|
C|8-----------------10---------------5----------------3----------------------|
*12 times          *4 times        *12 times       *4 times

D|---------------------------------------------------------------------------|
A|---------------------------------------------------------------------------|
F|---------------------------------------------------------------------------|
C|8-----------------10---------------5----------------3----------------------|
G|8-----------------10---------------5----------------3----------------------|
C|8-----------------10---------------5----------------3----------------------|
*12 times          *4 times        *9 times         *6 times
                                     (slight pause)
D|---------------------------------------------------------------------------|
A|---------------------------------------------------------------------------|
F|---------------------------------------------------------------------------|
C|0---0h2---2-2---8-8-7/8-8/10--10--10-10-8----------------------------------|
G|0---0h2---2-2---8-8-7/8-8/10--10--10-10-8----------------------------------|
C|0---0h2---2-2---8-8-7/8-8/10--10--10-10-8----------------------------------|

D|---------------------------------------------------------------------------|
A|---------------------------------------------------------------------------|
F|---------------------------------------------------------------------------|
C|0---2--8--7--2---2/3--2/3--------------------------------------------------|
G|0---2--8--7--2---2/3--2/3--------------------------------------------------|
C|0---2--8--7--2---2/3--2/3--------------------------------------------------|

D|---------------------------------------------------------------------------|
A|---------------------------------------------------------------------------|
F|---------------------------------------------------------------------------|
C|0---0h2---2-2---8-8-7/8-8/10--10--10-10-8-0---------7\6--6\5---------------|
G|0---0h2---2-2---8-8-7/8-8/10--10--10-10-8-0---------7\6--6\5---------------|
C|0---0h2---2-2---8-8-7/8-8/10--10--10-10-8-0---------7\6--6\5---------------|

*Solo*
D|---------------------------------------------------------------------------|
A|---------------------------------------------------------------------------|
F|----7-------------7------------7-------------7-----------------------------|
C|---------------------------------------------------------------------------|
G|8-5---5-5-7h8-7-5---5-5-7--8-5---5-5-7h8-7-5---5-5--3-5--------------------|
C|---------------------------------------------------------------------------|

D|---------------------------------------------------------------------------|
A|---------------------------------------------------------------------------|
F|----7-------------7------------888888888888----10-10-10-10-----------------|
C|-------------------------------888888888888----10-10-10-10-----------------|
G|8-5---5-5-7h8-7-5---5-5-7------888888888888----10-10-10-10-----------------|
C|---------------------------------------------------------------------------|
************************************

| /   slide up
| \   slide down
| h   hammer-on
| p   pull-off
| ~   vibrato
| +   harmonic
| x   Mute note
| b   Bend
| pb  Pre-bend
| br  Bend release
| pbr Pre-bend release
| brb Bend release bend

************************************
Добавлено: 26.03.2012
Другие материалы по этой песне:

Страница создана 26.03.2012
http://primanota.ru/disturbed/serpentine-chords.htm
Привет, Гость.
Предлагаем пройти революционный курс по гитаре.
Подарок от PrimaNota.Ru, забирай!