PrimaNota.ru - самый крупный в мире бесплатный архив песенных текстов, аккордов, табулатур и нот


Dispatch - Cut It Ya Match It - таба, видео

Регистрация Запомнить меня
Войти через:  Facebook Google Twitter Vk Yandex Mail.ru

Dispatch - Cut It Ya Match It - таба, видео

Печатать
Просмотров: 113
Dispatch/One Fell Swoop
Gut the Van
Cut It/Match It
Tabbed by Owen Sakovics
www.tabsinonefellswoop.com

----------------------------0--0---------------------------------|
----------------------------14-14--------------------------------|
----------------------------14-14-14-14-14-14-12-11-11h12p11-----|	x3
-14-14--14-14-12-12-11------14-14----------------------------12--|
-14-14-----------------12---0--0---------------------------------|
-0--0------------------------------------------------------------|

----------------------------0--0--0--0--0--0--0--0--0--0--0--0---|
----------------------------14-14-14-14-14-14-14-14-14-14-14-14--|
----------------------------14-14-14-14-14-14-14-14-14-14-14-14--|	x1
-14-14--14-14-12-12-11------14-14-14-14-14-14-14-14-14-14-14-14--|
-14-14-----------------12---0--0--0--0--0--0--0--0--0--0--0--0---|
-0--0------------------------------------------------------------|

----------------------------0--0---------------------------------|
----------------------------14-14--------------------------------|
----------------------------14-14-14-14-14-14-12-11-11h12p11-----|	x1
-14-14--14-14-12-12-11------14-14----------------------------12--|
-14-14-----------------12---0--0---------------------------------|
-0--0------------------------------------------------------------|

----------------------------0--0--0--0--0--0--0--0--0--0--0--0---|
----------------------------14-14-14-14-14-14-14-14-14-14-14-14--|
----------------------------14-14-14-14-14-14-14-14-14-14-14-14--|	x1
-14-14--14-14-12-12-11------14-14-14-14-14-14-14-14-14-14-14-14--|
-14-14-----------------12---0--0--0--0--0--0--0--0--0--0--0--0---|
-0--0------------------------------------------------------------|

----------------------------0--0---------------------------------|
----------------------------14-14--------------------------------|
----------------------------14-14-14-14-14-14-12-11-11h12p11-----|	x1
-14-14--14-14-12-12-11------14-14----------------------------12--|
-14-14-----------------12---0--0---------------------------------|
-0--0------------------------------------------------------------|

----------------------------0--0--0--0--0--0--0--0--0--0--0--0---|
----------------------------14-14-14-14-14-14-14-14-14-14-14-14--|
----------------------------14-14-14-14-14-14-14-14-14-14-14-14--|	x1
-14-14--14-14-12-12-11------14-14-14-14-14-14-14-14-14-14-14-14--|
-14-14-----------------12---0--0--0--0--0--0--0--0--0--0--0--0---|
-0--0------------------------------------------------------------|

 E	A
-0------0---|
-0------14--|
-13-----14--|	x1
-14-----14--|
-14-----0---|
-0----------|

----------------------------0--0--0--0--0--0--0--0--0--0--0--0---|
----------------------------14-14-14-14-14-14-14-14-14-14-14-14--|
----------------------------14-14-14-14-14-14-14-14-14-14-14-14--|	x1
-14-14--14-14-12-12-11------14-14-14-14-14-14-14-14-14-14-14-14--|
-14-14-----------------12---0--0--0--0--0--0--0--0--0--0--0--0---|
-0--0------------------------------------------------------------|

----------------------------0--0---------------------------------|
----------------------------14-14--------------------------------|
----------------------------14-14-14-14-14-14-12-11-11h12p11-----|	x1
-14-14--14-14-12-12-11------14-14----------------------------12--|
-14-14-----------------12---0--0---------------------------------|
-0--0------------------------------------------------------------|

----------------------------0--0--0--0--0--0--0--0--0--0--0--0---|
----------------------------14-14-14-14-14-14-14-14-14-14-14-14--|
----------------------------14-14-14-14-14-14-14-14-14-14-14-14--|	x1
-14-14--14-14-12-12-11------14-14-14-14-14-14-14-14-14-14-14-14--|
-14-14-----------------12---0--0--0--0--0--0--0--0--0--0--0--0---|
-0--0------------------------------------------------------------|

----------------------------0--0---------------------------------|
----------------------------14-14--------------------------------|
----------------------------14-14-14-14-14-14-12-11-11h12p11-----|	x1
-14-14--14-14-12-12-11------14-14----------------------------12--|
-14-14-----------------12---0--0---------------------------------|
-0--0------------------------------------------------------------|

----------------------------0--0--0--0--0--0--0--0--0--0--0--0---|
----------------------------14-14-14-14-14-14-14-14-14-14-14-14--|
----------------------------14-14-14-14-14-14-14-14-14-14-14-14--|	x1
-14-14--14-14-12-12-11------14-14-14-14-14-14-14-14-14-14-14-14--|
-14-14-----------------12---0--0--0--0--0--0--0--0--0--0--0--0---|
-0--0------------------------------------------------------------|

----------------------------0--0---------------------------------|
----------------------------14-14--------------------------------|
----------------------------14-14-14-14-14-14-12-11-11h12p11-----|	x1
-14-14--14-14-12-12-11------14-14----------------------------12--|
-14-14-----------------12---0--0---------------------------------|
-0--0------------------------------------------------------------|

 E	A
-0------0---|
-0------14--|
-13-----14--|	x1
-14-----14--|
-14-----0---|
-0----------|

----------------------------0--0---------------------------------|
----------------------------14-14--------------------------------|
----------------------------14-14-14-14-14-14-12-11-11h12p11-----|	x1
-14-14--14-14-12-12-11------14-14----------------------------12--|
-14-14-----------------12---0--0---------------------------------|
-0--0------------------------------------------------------------|

----------------------------0--0--0--0--0--0--0--0--0--0--0--0---|
----------------------------14-14-14-14-14-14-14-14-14-14-14-14--|
----------------------------14-14-14-14-14-14-14-14-14-14-14-14--|	x2
-14-14--14-14-12-12-11------14-14-14-14-14-14-14-14-14-14-14-14--|
-14-14-----------------12---0--0--0--0--0--0--0--0--0--0--0--0---|
-0--0------------------------------------------------------------|

 E	A
-0------0---|
-0------14--|
-13-----14--|	x7
-14-----14--|
-14-----0---|
-0----------|

----------------------------0--0---------------------------------|
----------------------------14-14--------------------------------|
----------------------------14-14-14-14-14-14-12-11-11h12p11-----|	x1
-14-14--14-14-12-12-11------14-14----------------------------12--|
-14-14-----------------12---0--0---------------------------------|
-0--0------------------------------------------------------------|

----------------------------0--0--0--0--0--0--0--0--0--0--0--0---|
----------------------------14-14-14-14-14-14-14-14-14-14-14-14--|
----------------------------14-14-14-14-14-14-14-14-14-14-14-14--|	x2
-14-14--14-14-12-12-11------14-14-14-14-14-14-14-14-14-14-14-14--|
-14-14-----------------12---0--0--0--0--0--0--0--0--0--0--0--0---|
-0--0------------------------------------------------------------|

 E	A
-0------0---|
-0------14--|
-13-----14--|	x19
-14-----14--|
-14-----0---|
-0----------|

--------7-------5----------|
-12-----7-------5-------7--|
-12-----7-------5-------7--|	x4
-12-----6-------4-------7--|
-11-----7-------5-------6--|
-12---------------------7--|

---------------------------|
-7------7-------7-------7--|
-7------7-------7-------7--|	x1
-7------7-------7-------7--|
-6------6-------6-------6--|
-7------7-------7-------7--|

(OUTRO)
 E	A
-0------0---|
-0------14--|
-13-----14--|
-14-----14--|
-14-----0---|
-0----------|
Добавлено: 24.08.2013
Другие материалы по этой песне:
  • Аккорды и текст

Страница создана 24.08.2013
http://primanota.ru/dispatch/cut-it-ya-match-it-chords.htm
Привет, Гость.
Предлагаем пройти революционный курс по гитаре.
Подарок от PrimaNota.Ru, забирай!