PrimaNota.ru - самый крупный в мире бесплатный архив песенных текстов, аккордов, табулатур и нот


Dispatch - Time Served - текст песни, таба, бас-таба, видео

Регистрация Запомнить меня
Войти через:  Facebook Google Twitter Vk Yandex Mail.ru

Dispatch - Time Served - текст песни, таба, бас-таба, видео

Печатать
Просмотров: 255
e--7h8-7----------7-7h87-------7-7h87----------------------------------------|
B--------10-8-------------10-----------10-8----------------------------------|
G---------------------------------------------9-7----------------------------|
D----------------------------------------------------------------------------|
A----------------------------------------------------------------------------|
E----------------------------------------------------------------------------|

e---------------7-8-10-12-15---12---10--10-10-10-10-------------10--12-----|
B---------8-10--------------------------------------12-10-10h12------------|
G---7--9-------------------------------------------------------------------|
D--------------------------------------------------------------------------|
A--------------------------------------------------------------------------|
E--------------------------------------------------------------------------|
just figure out the timing when it gets higher

e--10-------10-------------10--12-----------------------------------------|
B-----10h12-----10--10h12-------------------------------------------------|
G-------------------------------------------------------------------------|
D-------------------------------------------------------------------------|
A-------------------------------------------------------------------------|
E-------------------------------------------------------------------------|


somthing like that
most of the notes are right but you can figure out timing.
Добавлено: 22.07.2012
Другие материалы по этой песне:

Страница создана 05.03.2012
http://primanota.ru/dispatch/time-served-chords.htm
Привет, Гость.
Предлагаем пройти революционный курс по гитаре.
Подарок от PrimaNota.Ru, забирай!