PrimaNota.ru - самый крупный в мире бесплатный архив песенных текстов, аккордов, табулатур и нот


Dispatch - Douggie Mayrus - таба

Регистрация Запомнить меня
Войти через:  Facebook Google Twitter Vk Yandex Mail.ru

Dispatch - Douggie Mayrus - таба

Печатать
Просмотров: 70
Douggie Mayrus
Who are we livin for
Dispatch

-----------------------------------|
-----------------------------------|
-----------------------------------|	x2
-0--3-0----------0--3-0------------|
--------3-0-------------3-0---0----|
------------3-1-------------3---1--|

			G			G9			G9
------------------------10----------------------10----------------------10----------------------|
-10---------------------10--10------------------10--10------------------10--10------------------|
----10--12-10--12-10----10-----10--12-10-12-10--10-----10--12-10-12-10--10-----10--12-10-12-10--|
------------------------9-----------------------9-----------------------9-----------------------|
------------------------10----------------------10----------------------10----------------------|
------------------------------------------------------------------------------------------------|

 E9	E9  F#9 G9  F#9 E9	E9  G9
-7------7---9s--10-s9---7-------7---10--|
-7------7---9s--10-s9---7-------7---10--|
-7------7---9s--10-s9---7-------7---10--|	x1
-6------6---8s--9--s8---6-------6---9---|
-7------7---9s--10-s9---7-------7---10--|
----------------------------------------|

-----------------------------------|
-----------------------------------|
-----------------------------------|	x2
-0--3-0----------0--3-0------------|
--------3-0-------------3-0---0----|
------------3-1-------------3---1--|

			G			G9			G9
------------------------10----------------------10----------------------10----------------------|
-10---------------------10--10------------------10--10------------------10--10------------------|
----10--12-10--12-10----10-----10--12-10-12-10--10-----10--12-10-12-10--10-----10--12-10-12-10--|
------------------------9-----------------------9-----------------------9-----------------------|
------------------------10----------------------10----------------------10----------------------|
------------------------------------------------------------------------------------------------|

 E9	F#9	E9	F#9 	F#9 G9
-7------9-------7-------9-------9---10--|
-7------9-------7-------9-------9---10--|
-7------9-------7-------9-------9---10--|	x1
-6------8-------9-------8-------8---9---|
-7------9-------7-------9-------9---10--|
----------------------------------------|

(OUTRO)
-----------------------------------|
-----------------------------------|
-----------------------------------|
-0--3-0----------0--3-0------------|
--------3-0-------------3-0---0----|
------------3-1-------------3---1--|
Добавлено: 03.08.2013
Другие материалы по этой песне:
  • Аккорды и текст

Страница создана 03.08.2013
http://primanota.ru/dispatch/douggie-mayrus-chords.htm
Привет, Гость.
Предлагаем пройти революционный курс по гитаре.
Подарок от PrimaNota.Ru, забирай!