PrimaNota.ru - самый крупный в мире бесплатный архив песенных текстов, аккордов, табулатур и нот


Dismember - Override Of The Overture - текст песни, таба, видео

Регистрация Запомнить меня
Войти через:  Facebook Google Twitter Vk Yandex Mail.ru

Dismember - Override Of The Overture - текст песни, таба, видео

Печатать
Просмотров: 142
                  D I S M E M B E R  -  Override Of The Overture
                    From the Album Like An Everflowing Stream
                          Copyright 1991 Nuclear Blast

                              Version 1.0 - May 2002

Transcribed by: Adam
  Structure by: death8699

For Questions, Comments, Newest Version, or Corrections contact
      Adam: at Adam_ca66@hotmail.com
 death8699: at ArchEnemies@aol.com

Check Out Death8699.com, With More Transcriptions On It:
 http://www.death8699.com

.  - palm mute                  /  - slide up to
\  - slide down to              ~  - vibrato
"  - tremelo picking           ( ) - ghost note
b  - bend                       h  - hammer-on
fb - full bend (1 step)         p  - pull-off
hb - half bend (1/2 step)       r  - release a bend
t  - tapping                    ah - artificial harmonic

Tune Gtr to C

--Override of the Overture--

[Riff A1]                                       [2tx]
[---------------------------------------------------]
[---------------------------------------------------]
[*-------------------------------------------------*]GTR 1
[*-----9"-10"-9"-12"-10"-9"-10"-9"-----9"-8"----7"-*]
[--7"------------------------------10"-------9"-----]
[---------------------------------------------------]


[Riff A2]                                       [2tx]
[---------------------------------------------------]
[---------------------------------------------------]
[*-------------------------------------------------*]GTR 1
[*----7"-8"-7"-10"-8"-7"-8"-7"----7"-6"----5"------*]
[--5"--------------------------8"-------7"----------]
[---------------------------------------------------]

                                                [2tx]
[---------------------------------------------------]
[---------------------------------------------------]
[*-------------------------------------------------*]GTR 2
[*----7"-8"-7"-10"-8"-7"-8"-7"----7"-6"----5"------*]
[--5"--------------------------8"-------7"----------]
[---------------------------------------------------]


Play Riff A1 2 times

                      ________________ _________________
[Riff B]             |1.              |2.               |
[--------------------|----------------|-----------------]
[--------------------|----------------|-----------------]
[*-------------------|----------------|----------------*]GTR 1
[*-------------------|----------------|----------------*]
[--2-------2-------2-|-------2--2--8--|--------7--------]
[--0--000--0--0-0--0-|-0-2-3-0--0--6--|-0--7_8----8-7-8-]
      ...     . .      . . .            .   h
                      ________________  ________________
                     |1.              |2.               |
[--------------------|----------------|-----------------]
[--------------------|----------------|-----------------]
[*-------------------|----------------|----------------*]GTR 2
[*-------------------|----------------|----------------*]
[--2-------2-------2-|-------2--2--8--|--------7--------]
[--0--000--0--0-0--0-|-0-2-3-0--0--6--|-0--7_8----8-7-8-]
      ...     . .      . . .            .   h


Play Riff B 5 times


[Riff C]                                                         [2tx]
[-----------------------|----------------|---------------------------]
[-----------------------|----------------|---------------------------]
[*----------------------|----------------|--------------------------*]GTR 1
[*-9--(9)----12--11---9-|-9"--7"--5"--4"-|-5-----9----7----5---7----*]
[--7--(7)----10--9----7-|----------------|-3-----7----5----3---5-----]
[--7--(7)----10--9----7-|----------------|-3-----7----5----3---5-----]

                                                                 [2tx]
[-----------------------|----------------|---------------------------]
[-----------------------|----------------|---------------------------]
[*----------------------|----------------|--------------------------*]GTR 2
[*-9--(9)----12--11---9-|-9"--7"--5"--4"-|-5-----9----7----5---7----*]
[--7--(7)----10--9----7-|----------------|-3-----7----5----3---5-----]
[--7--(7)----10--9----7-|----------------|-3-----7----5----3---5-----]


[Riff D]
[------------------------------]
[------------------------------]
[*----------------------------*]GTR 1
[*----------------------------*]
[--2--2--2--2--2--2--2--2------]
[--0--0--0--0--0--0--0--0--0"--]

[------------------------------]
[------------------------------]
[*----------------------------*]GTR 2
[*----------------------------*]
[--2--2--2--2--2--2--2--2------]
[--0--0--0--0--0--0--0--0--0"--]


[Riff E]                [2nd ending]
[-----------------------|----------]
[-----------------------|----------]
[*----------------------|---------*]GTR 1
[*----------------------|---------*]
[------2_3-2-----5-7-8--|----------]
[--0"---h----3"---------|-1-3-4-3--]
 
                        [2nd Ending]
[-----------------------|----------]
[-----------------------|----------]
[*----------------------|---------*]GTR 2
[*----------------------|---------*]
[------2_3-2-----5-7-8--|----------]
[--0"---h----3"---------|-1-3-4-3--]


Play Riff E 1 time


[Riff F] (fast throughout)
[-----------------------------------------------------]
[-----------------------------------------------------]
[*---------------------------------------------------*]GTR 1
[*---------------------------------------------------*]
[--2"---2----2--5---10--8---8-8-8---8-----3-3------3--]
[--0"-3_0--3_0--3----8--6---6-6-6---6-----1-1--0_1-1--]
       p    p                                   h
[-----------------------------------------------------]
[-----------------------------------------------------]
[*---------------------------------------------------*]GTR 2
[*---------------------------------------------------*]
[--2"---2----2--5---10--8---8-8-8---8-----3-3------3--]
[--0"-3_0--3_0--3----8--6---6-6-6---6-----1-1--0_1-1--]
       p    p                                   h


Play Riff F  6 times
Play Riff A2 2 times
Play Riff F  2 times
Play Riff A1 2 times

                          _________________ ___________________
[Riff G]                 |1.               |2.                 |
[------------------------|-----------------|-------------------]
[------------------------|-----------------|-------------------]
[*-----------------------|-----------------|---------------5--*]GTR 1
[*-----7--8-----8--7-----|-----7-8---8-7---|-----7-8---8-7----*]
[--5---5--6--8--6--5--8--|--5------8-----8-|--5------8---------]
[--3---5--6--6--6--5--6--|-----------------|-------------------]

                          _________________ ___________________
                         |1.               |2.                 |
[------------------------|-----------------|-------------------]
[------------------------|-----------------|-------------------]
[*-----------------------|-----------------|---------------5--*]GTR 2
[*-----7--8-----8--7-----|-----7-8---8-7---|-----7-8---8-7----*]
[--5---5--6--8--6--5--8--|--5------8-----8-|--5------8---------]
[--3---5--6--6--6--5--6--|-----------------|-------------------]


Play Riff G 1 time


[Riff H]                                     [2tx]
[------------------------------------------------]
[------------------------------------------------]
[*-----------------------------------------5"---*]GTR 1
[*----7"-8"-7"-----6"-------7"-8"-7"----6"------*]
[--5"----------8"-------5"-----------8"----------]
[------------------------------------------------]

                                             [2tx]
[------------------------------------------------]
[------------------------------------------------]
[*-----------------------------------------5"---*]GTR 2
[*----7"-8"-7"-----6"-------7"-8"-7"----6"------*]
[--5"----------8"-------5"-----------8"----------]
[------------------------------------------------]


Play Riff G 2 times
Play Riff E 2 times


[Riff I]
[----------------------------|------------------]
[----------------------------|------------------]
[*---------------------------|-----------------*]GTR 1
[*---------------------------|-----------------*]
[--2--2------2--2------2--2--|-7_8_7_5-7_5-7_8--]
[--0--0------0--0------0--0--|--h-p-p---p---h---]

                             (After a couple of 
                             times this one kicks 
                             in)
[----------------------------|------------------]
[----------------------------|------------------]
[*---------------------------|-----------------*]GTR 2
[*---------------------------|-----------------*]
[--2--2------2--2------2--2--|------------------]
[--0--0------0--0------0--0--|------------------]


Play Riff I 6 times
Play Riff C 2 times (over solo)

                      _______________ ______________________
[Riff J]             |1.             |2.                    |
[--------------------|---------------|----------------------]
[--------------------|---------------|----------------------]
[*-------------------|---------------|---------------------*]GTR 1
[*-------------------|---------------|---------------------*]
[--5-----2---------5-|---------3-----|-5---5/6\5\3/5/6------]
[--3-0-0-0-0-0-000-3-|-0-1-3-4---4-3-|-3-0-3/4\3\1/3/4------]
     . .   . . ...                       .
                      _______________ ______________________
                     |1.             |2.                    |                    
[--------------------|---------------|----------------------]
[--------------------|---------------|----------------------]
[*-------------------|---------------|---------------------*]GTR 2
[*-------------------|---------------|---------------------*]
[--5-----2---------5-|---------3-----|-5---5/6\5\3/5/6------]
[--3-0-0-0-0-0-000-3-|-0-1-3-4---4-3-|-3-0-3/4\3\1/3/4------]
     . .   . . ...                       .


Play Riff J 1 time

                        _______________ __________________
[Riff K]               |1.             |2.                |
[----------------------|---------------|------------------]
[----------------------|---------------|------------------]
[*---------------------|---------------|-----------------*]GTR 1
[*-7-----7/8--------7--|---------------|-----------------*]
[--5-----5/6--------5--|--7-8-7-----10-|--7-8-7---10------]
[--5--0--5/6--6-666-5--|--------8-6----|--------8---------]
      .       . ...
                        _______________ __________________
                       |1.             |2.                |
[----------------------|---------------|------------------]
[----------------------|---------------|------------------]
[----------------------|---------------|-----------------*]GTR 2
[*-7-----7/8--------7--|---------------|-----------------*]
[*-5-----5/6--------5--|--7-8-7-----10-|--7-8-7---10------]
[--5--0--5/6--6-666-5--|--------8-6----|--------8---------]
      .       . ... 


Play Riff K 1 time


[---------------------------------------------------------]
[---------------------------------------------------------]
[*-------------------------------------------------------*]GTR 1
[*-------------------------------------------------------*]
[--2-----------(2)----------------------------------------]
[--0-----------(0)----------------------------------------]

[---------------------------------------------------------]
[---------------------------------------------------------]
[*-------------------------------------------------------*]GTR 2
[*-------------------------------------------------------*]
[--2-----------(2)----------------------------------------]
[--0-----------(0)----------------------------------------]


Play Riff G 2 times


[Riff L]                           [2tx]
[--------------------------------------]
[--------------------------------------]
[*------------------------------------*]GTR 1
[*------------------------------------*]
[--7-----10------3-----2------6--------]
[--5-----8-------1-----0------4--------]

                                   [2tx]
[--------------------------------------]
[--------------------------------------]
[*------------------------------------*]GTR 2
[*------------------------------------*]
[--7------10-----3-----2------6--------]
[--5------8------1-----0------4--------]


Play Riff G  2 times
Play Riff A2 2 times


[Ending]
[--------------------------------------]
[--------------------------------------]
[*------------------------------------*]GTR 1
[*------------------------------------*]
[--2--2-----2--2------2--2-------------]
[--0--0-----0--0------0--0-------------]

[--------------------------------------]
[--------------------------------------]
[*------------------------------------*]GTR 2
[*------------------------------------*]
[--2--2-----2--2------2--2-------------]
[--0--0-----0--0------0--0-------------]

Check Out Death8699.com, With More Transcriptions On It:
 http://www.death8699.co
Добавлено: 11.05.2012
Другие материалы по этой песне:

Страница создана 28.03.2012
http://primanota.ru/dismember/override-of-the-overture-chords.htm
Привет, Гость.
Предлагаем пройти революционный курс по гитаре.
Подарок от PrimaNota.Ru, забирай!