PrimaNota.ru - самый крупный в мире бесплатный архив песенных текстов, аккордов, табулатур и нот


Dismember - Live For The Fear Of Pain - текст песни, таба, видео

Регистрация Запомнить меня
Войти через:  Facebook Google Twitter Vk Yandex Mail.ru

Dismember - Live For The Fear Of Pain - текст песни, таба, видео

Печатать
Просмотров: 154
Live for the fear of pain - Dismember - Death metal

  Tuning 2.5 step (B E A D F# B)


Riff #1 x2
|-1-/-5----------------------------------------------------|
|----------------------------------------------------------|
|--------8----8-----8-----10-----11-----10-----------------|
|----------00---00----00-----00-----00-----00--------------|
 pm        ..   ..    ..     ..     ..     ..
Riff#1(cont)
|----------------------------------------------------------|
|----------------------------------------------------------|
|--8-----8-----8-----7-----10---9--------------------------|
|----99---99----99----88-----88----------------------------|
 pm  ..   ..    ..    ..     .. 
Riff#2
|----------------------------------------------------------|
|-10------------10-----------------------------------------|
|--------10------------11-----10---11----------------------|
|----00-----00-----00-----00-----0-------------------------|
 pm  ..      ..    ..     ..     .
Riff#2(cont)
|----------------------------------------------------------|
|----------------------------------------11----10----------|
|----10--------10--------10--------8-----------------------|
|---0---11-11-----11-11-----11-11-----99----99-------------|
 pm .       .. ..     .. ..     .. ..     ..    ..  
Riff#2b
|----------------------------------------------------------|
|-10------------10-----------------------------------------|
|--------10------------11-----10---11----------------------|
|----00-----00-----00-----00-----0----0--------------------|
 pm  ..     ..     ..     ..     .    . 
Riff#2b(cont)
|----------------------------------------------------------|
|----------------------------------------------------------|
|-----10-------10-------10-------8-------------------------|
|---0----11-11----11-11----11-11---------------------------|
 pm .    .. ..    .. ..    .. ..
Riff#1 x2 (without the 1 / 5)
Riff#2

Riff#2c
|----------------------------------------------------------|
|-10----------10-------------------------------------------|
|-------10----------11----10---11--------------------------|
|----00----00----00----00----0----0------------------------|
 pm  ..    ..    ..    ..    .    .
Riff#2c(cont)
|----------------------------------------------------------|
|----------------------------------------------------------|
|-----10-------10-------10-------8----11----10-------------|
|---0----11-11----11-11----11-11---99----99----------------|
 pm .    .. ..    .. ..    .. ..   ..    ..
Riff#3
|----------------------------------------------------------|
|--------1010--1010---------1010--1010---------------------|
|-----88-----88----88-----88----88----88-77----------------|
|-0000----------------0000---------------------------------|
pm.........................................
Riff#3(cont)
|----------------------------------------------------------|
|---------111110101111------------11111010-----------------|
|-----1010------------1010----1010--------11111010---------|
|-9999--------------------9999-----------------------------|
pm................................................

Riff#1 x2 (without the 1 / 5)
Riff2
Riff2b

Riff#4 x2
|---------------------6---------6--------------------------|
|-3---------3---------6---------6--------------------------|
|-3---------3---------4---------4--------------------------|
|-1---------1----------------------------------------------|

Riff#5 x3
|----------------------------------------------------------|
|----------------------------------------------------------|
|-8----8----8h10h11-11-------11-------9p8p6-6----6----9p8p6|        
|---88---88-----------11-11----11-11---------66---66-------|
 pm ..   ..           .. ..    .. ..         ..   ..               
Riff#5(cont)
|----------------------------------------------------------|
|----------------------------------------------------------|
|-4----4----11p10p8----------------------------------------|
|---44---44------------------------------------------------|
 pm ..   ..
Riff#5a
|----------------------------------------------------------|
|----------------------------------------------------------|
|-8----8----8h10h11-11-------11-------9p8p6-6----6----9p8p6|
|---88---88------------11-11----11-11---------66---66------|
 pm ..   ..            .. ..    .. ..         ..   ..
Riff#5a(cont)
|----------------------------------------------------------|
|-----------1-/-5-5p4p2-1-5--------------------------------|
|-4----4---------------------------------------------------|
|---44---44------------------------------------------------|
 pm ..   ..
Riff#1 x2 (without the 1 / 5 )
Riff#2
Riff#2c

Riff#6 x2
|-----------5---------8------------------------------------|
|-3------------------------------5-------------------------|
|-----------3---------6------------------------------------|
|-1------------------------------3-------------------------|

Riff#2
Riff#2b
Riff#4 x2

Riff#
|----------------------------------------------------------|
|----------------------------------------------------------|
|-8----8----11p10p8-8-\-1----------------------------------|
|---00---00------------------------------------------------|
 pm ..   ..
Добавлено: 06.04.2012
Другие материалы по этой песне:
  • Аккорды и текст

Страница создана 26.03.2012
http://primanota.ru/dismember/live-for-the-fear-of-pain-chords.htm
Привет, Гость.
Предлагаем пройти революционный курс по гитаре.
Подарок от PrimaNota.Ru, забирай!