PrimaNota.ru - самый крупный в мире бесплатный архив песенных текстов, аккордов, табулатур и нот


Disciple - Rip - таба, видео

Регистрация Запомнить меня
Войти через:  Facebook Google Twitter Vk Yandex Mail.ru

Disciple - Rip - таба, видео

Печатать
Просмотров: 66
-------------------------------------------------------------------------------
     R.I.P. - Disciple
-------------------------------------------------------------------------------
Tabbed by: Tap Master
E-mail: colindbetts@yahoo.com

Tuning: Drop A (AEADF#B)


(Rhythm on top, Lead on bottom)


INTRO


    E  E  E  E  E  E  E  E+W                       E  E  E  E  E  E  E  Q    E  E  E  E  E  E  E     
e|-------------------------------------------------------------------------------------------------|
B|-------------------------------------------------------------------------------------------------|
G|-------------------------------------------------------------------------------------------------|
D|-------------------------------------------------------------------------------------------------|
A|--0--3--3--3--0--3--3----------------------------0--3--3--3--0--3--3-----------------------------|
E|-----------------------0----------------------------------------------0----0--5--0--6--5--3--0---|
 |
 |  
 |  E  E  E  E  E  E  E  Q    E  E  E  E  E  E  E  E  E  E  E  E  E  E  Q    E  E  E  E  E  E  E
e|--12h15-15-15-12-15-15---------------------------12h15-15-15-12h15-15----------------------------|
B|-----------------------15---13-15-------------------------------------15---13-15----------12h14--|
G|-------------------------------------12h14------------------------------------------12h14--------|
D|----------------------------------12-------12-12---------------------------------12--------------|
A|-------------------------------------------------------------------------------------------------|
E|-------------------------------------------------------------------------------------------------|

    E  E  E  E  E  E  E  E+W                       E  E  E  E  E  E  E  E+H.  
e|-------------------------------------------------------------------------------------------------|
B|-------------------------------------------------------------------------------------------------|
G|-------------------------------------------------------------------------------------------------|
D|-------------------------------------------------------------------------------------------------|
A|--0--3--3--3--0--3--3----------------------------0--3--3--3--0--3--3--0--------------------------|
E|-----------------------0-------------------------------------------------------------------------|
 |
 | 
 |  E  E  E  E  E  E  E  Q    E  E  E  E  E  E  E  E  E  E  E  E  E  E  E+H.
e|--12h15-15-15-12h15-15---------------------------12h15-15-15-12h15-15-12-------------------------|
B|-----------------------15---13-15----------------------------------------------------------------|
G|-------------------------------------12h14-------------------------------------------------------|
D|----------------------------------12-------12-12-------------------------------------------------|
A|-------------------------------------------------------------------------------------------------|
E|-------------------------------------------------------------------------------------------------|


VERSE I


    E E E E+Q.  E E E E E+Q.  E E E E E+Q.  E  Q.  Q   Q.
e|--------------------------------------------------------------------------|
B|--------------------------------------------------------------------------|
G|-------------------------------------------------2---5--------------------|
D|---------------------------------------------3---2---5--------------------|
A|---------------------------------------------3---0---3--------------------|
E|--7h8p7p0-----0-3h7p3p0-----0-7h8p7p0-----0--3----------------------------|
                *             *             *

    E E E E+Q.  E E E E E+Q.  E E E E E+Q.  E  Q.  Q   Q.
e|--------------------------------------------------------------------------|
B|--------------------------------------------------------------------------|
G|-------------------------------------------------2------------------------|
D|---------------------------------------------3---2---1--------------------|
A|---------------------------------------------3---0---1--------------------|
E|--7h8p7p0-----0-3h7p3p0-----0-7h8p7p0-----0--3-------1--------------------|
                *             *             *

PRECHORUS


    E E Q   E E Q   E E Q   E E Q   E E Q   E E Q   E E Q   H
e|--------------------------------------------------------------------------|
B|--------------------------------------------------------------------------|
G|--------------------------------------------------------------------------|
D|----------3---------------3-5-3-----------3-------------------------------|
A|--3-5-5-----5-5---3-5-5-----------3-5-5-----5-5---3-5-5-------------------|
E|----------------------------------------------------------6\--------------|


CHORUS


    Q   Q.  Q   Q   Q   E Q   E E Q   Q.  Q   Q   E E E E E Q
e|--------------------------------------------------------------------------|
B|--------------------------------------------------------------------------|
G|--------------------------------5---5-------------------------------------|
D|--0---0---0---0---3---0-3---3-0-5---5---6---5---8-7-0-6-5-3---------------|
A|--0---0---0---0---3---0-3---3-0-3---3---6---5---8-7-0-6-5-3---------------|
E|--0---0---0---0---3---0-3---3-0---------6---5---8-7-0-6-5-3---------------|

    W         W         E E E E E E E E E  E  E  E  E  E  E  E
e|--------------------------------------------------------------------------|
B|--------------------------------------------------------------------------|
G|--------------------------------------------------------------------------|
D|--0---------3---------8-8-8-8-8-8-8-8-10-10-10-10-10-10-10-10-------------|
A|--0---------3---------8-8-8-8-8-8-8-8-10-10-10-10-10-10-10-10-------------|
E|--0---------3---------8-8-8-8-8-8-8-8-10-10-10-10-10-10-10-10-------------|

    Q   Q.  Q   Q   Q   E Q   E E Q   Q.  Q   Q   E E E E E Q
e|--------------------------------------------------------------------------|
B|--------------------------------------------------------------------------|
G|--------------------------------5---5-------------------------------------|
D|--0---0---0---0---3---0-3---3-0-5---5---6---5---8-7-0-6-5-3---------------|
A|--0---0---0---0---3---0-3---3-0-3---3---6---5---8-7-0-6-5-3---------------|
E|--0---0---0---0---3---0-3---3-0---------6---5---8-7-0-6-5-3---------------|

    W         W         E E E E E E E E  Q
e|--------------------------------------------------------------------------|
B|--------------------------------------------------------------------------|
G|--------------------------------------------------------------------------|
D|--0---------3---------8-8-8-8-8-8-8-8--10\--------------------------------|
A|--0---------3---------8-8-8-8-8-8-8-8--10\--------------------------------|
E|--0---------3---------8-8-8-8-8-8-8-8--10\--------------------------------|


POST-CHORUS (INTRO)


E  E  E  E  E  E  E  E+W                       E  E  E  E  E  E  E  E+H.  
e|-------------------------------------------------------------------------------------------------|
B|-------------------------------------------------------------------------------------------------|
G|-------------------------------------------------------------------------------------------------|
D|-------------------------------------------------------------------------------------------------|
A|--0--3--3--3--0--3--3----------------------------0--3--3--3--0--3--3--0--------------------------|
E|-----------------------0-------------------------------------------------------------------------|
 |
 | 
 |  E  E  E  E  E  E  E  Q    E  E  E  E  E  E  E  E  E  E  E  E  E  E  E+H.
e|--12-15-15-15-12-15-15---------------------------12-15-15-15-12-15-15-12-------------------------|
B|-----------------------15---13-15----------------------------------------------------------------|
G|-------------------------------------12-14-------------------------------------------------------|
D|----------------------------------12-------12-12-------------------------------------------------|
A|-------------------------------------------------------------------------------------------------|
E|-------------------------------------------------------------------------------------------------|


VERSE II


    E E E E+Q.  E E E E E+Q.  E E E E E+Q.  E  Q.  Q   Q.
e|--------------------------------------------------------------------------|
B|--------------------------------------------------------------------------|
G|-------------------------------------------------2---5--------------------|
D|---------------------------------------------3---2---5--------------------|
A|---------------------------------------------3---0---3--------------------|
E|--7h8p7p0-----0-3h7p3p0-----0-7h8p7p0-----0--3----------------------------|
                *             *             *

    E E E E+Q.  E E E E E+Q.  E E E E E+Q.  E  Q.  Q   Q.
e|--------------------------------------------------------------------------|
B|--------------------------------------------------------------------------|
G|-------------------------------------------------2------------------------|
D|---------------------------------------------3---2---1--------------------|
A|---------------------------------------------3---0---1--------------------|
E|--7h8p7p0-----0-3h7p3p0-----0-7h8p7p0-----0--3-------1--------------------|
                *             *             *

PRECHORUS


    E E Q   E E Q   E E Q   E E Q   E E Q   E E Q   E E Q   H
e|--------------------------------------------------------------------------|
B|--------------------------------------------------------------------------|
G|--------------------------------------------------------------------------|
D|----------3---------------3-5-3-----------3-------------------------------|
A|--3-5-5-----5-5---3-5-5-----------3-5-5-----5-5---3-5-5-------------------|
E|----------------------------------------------------------6\--------------|


CHORUS


    Q   Q.  Q   Q   Q   E Q   E E Q   Q.  Q   Q   E E E E E Q
e|--------------------------------------------------------------------------|
B|--------------------------------------------------------------------------|
G|--------------------------------5---5-------------------------------------|
D|--0---0---0---0---3---0-3---3-0-5---5---6---5---8-7-0-6-5-3---------------|
A|--0---0---0---0---3---0-3---3-0-3---3---6---5---8-7-0-6-5-3---------------|
E|--0---0---0---0---3---0-3---3-0---------6---5---8-7-0-6-5-3---------------|

    W         W         E E E E E E E E E  E  E  E  E  E  E  E
e|--------------------------------------------------------------------------|
B|--------------------------------------------------------------------------|
G|--------------------------------------------------------------------------|
D|--0---------3---------8-8-8-8-8-8-8-8-10-10-10-10-10-10-10-10-------------|
A|--0---------3---------8-8-8-8-8-8-8-8-10-10-10-10-10-10-10-10-------------|
E|--0---------3---------8-8-8-8-8-8-8-8-10-10-10-10-10-10-10-10-------------|

    Q   Q.  Q   Q   Q   E Q   E E Q   Q.  Q   Q   E E E E E Q
e|--------------------------------------------------------------------------|
B|--------------------------------------------------------------------------|
G|--------------------------------5---5-------------------------------------|
D|--0---0---0---0---3---0-3---3-0-5---5---6---5---8-7-0-6-5-3---------------|
A|--0---0---0---0---3---0-3---3-0-3---3---6---5---8-7-0-6-5-3---------------|
E|--0---0---0---0---3---0-3---3-0---------6---5---8-7-0-6-5-3---------------|

    W         W         E E E E E E E E E  E  E  E  E  E  E  E
e|--------------------------------------------------------------------------|
B|--------------------------------------------------------------------------|
G|--------------------------------------------------------------------------|
D|--0---------3---------8-8-8-8-8-8-8-8-10-10-10-10-10-10-10-10-------------|
A|--0---------3---------8-8-8-8-8-8-8-8-10-10-10-10-10-10-10-10-------------|
E|--0---------3---------8-8-8-8-8-8-8-8-10-10-10-10-10-10-10-10-------------|
   

BRIDGE


    E E Q   E E Q   E E Q   E E Q   E E Q   E E Q   E E Q   H
e|--------------------------------------------------------------------------|
B|--------------------------------------------------------------------------|
G|--------------------------------------------------------------------------|
D|----------3---------------3-5-3-----------3-------------------------------|
A|--3-5-5-----5-5---3-5-5-----------3-5-5-----5-5---3-5-5-------------------|
E|----------------------------------------------------------6\--------------|
 |
 |
 |                                  E E Q   E E Q   E E Q   H
e|--------------------------------------------------------------------------|
B|------------------------------------------6-------------------------------|
G|----------------------------------5-7-7-----7-7---5-7-7-------------------|
D|--------------------------------------------------------------------------|
A|--------------------------------------------------------------------------|
E|----------------------------------------------------------6\--------------|

    E E Q   E E Q   E E E E E E Q   E E Q   E E Q   E E E E E E E E
e|--------------------------------------------------------------------------|
B|--------------------------------------------------------------------------|
G|--------------------------------------------------------------------------|
D|--------------------------------------------------------------------------|
A|--3---------------3---------------3---------------3-----------------------|
E|----0-0---3-0-0-----0-3-5-3-0-0-----0-0---3-0-0-----0-3-5-6-5-3-0---------|
 |
 |
 |  Tremolo pick, slowly bend up
e|--------------------------------------------------------------------------|
B|--------------------------------------------------------------------------|
G|--5b7---------------------------------------------------------------------|
D|--------------------------------------------------------------------------|
A|--------------------------------------------------------------------------|
E|--------------------------------------------------------------------------|
    (Tremolo pick the fifth fret of the G string and slowly bend up a whole
step by the next measure.)

    E E Q   E E Q   E E E E E E Q   E E Q   E E Q   E E E E E E Q
e|--------------------------------------------------------------------------|
B|--------------------------------------------------------------------------|
G|--------------------------------------------------------------------------|
D|--------------------------------------------------------------------------|
A|--3---------------3---------------3---------------3-----------------------|
E|----0-0---3-0-0-----0-3-5-3-0-0-----0-0---3-0-0-----0-3-5-6-5-3-----------|
 |
 |
 |  Tremolo pick
e|--------------------------------------------------------------------------|
B|--------------------------------------------------------------------------|
G|--pb7---------------------------------------------------------------------|
D|--------------------------------------------------------------------------|
A|--------------------------------------------------------------------------|
E|--------------------------------------------------------------------------|
    (Continue tremolo picking, fifth fret should be bent all the way up to
seventh fret now.)


POST-BRIDGE (INTRO)


    E  E  E  E  E  E  E  E+W                       E  E  E  E  E  E  E  E+H.  
e|-------------------------------------------------------------------------------------------------|
B|-------------------------------------------------------------------------------------------------|
G|-------------------------------------------------------------------------------------------------|
D|-------------------------------------------------------------------------------------------------|
A|--0--3--3--3--0--3--3----------------------------0--3--3--3--0--3--3--0--------------------------|
E|-----------------------0-------------------------------------------------------------------------|
 |
 | 
 |  E  E  E  E  E  E  E  Q    E  E  E  E  E  E  E  E  E  E  E  E  E  E  E+H.
e|--12-15-15-15-12-15-15---------------------------12-15-15-15-12-15-15-12-------------------------|
B|-----------------------15---13-15----------------------------------------------------------------|
G|-------------------------------------12-14-------------------------------------------------------|
D|----------------------------------12-------12-12-------------------------------------------------|
A|-------------------------------------------------------------------------------------------------|
E|-------------------------------------------------------------------------------------------------|


CHORUS


    Q   Q.  Q   Q   Q   E Q   E E Q   Q.  Q   Q   E E E E E Q
e|--------------------------------------------------------------------------|
B|--------------------------------------------------------------------------|
G|--------------------------------5---5-------------------------------------|
D|--0---0---0---0---3---0-3---3-0-5---5---6---5---8-7-0-6-5-3---------------|
A|--0---0---0---0---3---0-3---3-0-3---3---6---5---8-7-0-6-5-3---------------|
E|--0---0---0---0---3---0-3---3-0---------6---5---8-7-0-6-5-3---------------|

    W         W         E E E E E E E E E  E  E  E  E  E  E  E
e|--------------------------------------------------------------------------|
B|--------------------------------------------------------------------------|
G|--------------------------------------------------------------------------|
D|--0---------3---------8-8-8-8-8-8-8-8-10-10-10-10-10-10-10-10-------------|
A|--0---------3---------8-8-8-8-8-8-8-8-10-10-10-10-10-10-10-10-------------|
E|--0---------3---------8-8-8-8-8-8-8-8-10-10-10-10-10-10-10-10-------------|

    Q   Q.  Q   Q   Q   E Q   E E Q   Q.  Q   Q   E E E E E Q
e|--------------------------------------------------------------------------|
B|--------------------------------------------------------------------------|
G|--------------------------------5---5-------------------------------------|
D|--0---0---0---0---3---0-3---3-0-5---5---6---5---8-7-0-6-5-3---------------|
A|--0---0---0---0---3---0-3---3-0-3---3---6---5---8-7-0-6-5-3---------------|
E|--0---0---0---0---3---0-3---3-0---------6---5---8-7-0-6-5-3---------------|

    W         W         E E E E E E E E E  E  E  E  E  E  E  E
e|--------------------------------------------------------------------------|
B|--------------------------------------------------------------------------|
G|--------------------------------------------------------------------------|
D|--0---------3---------8-8-8-8-8-8-8-8-10-10-10-10-10-10-10-10-------------|
A|--0---------3---------8-8-8-8-8-8-8-8-10-10-10-10-10-10-10-10-------------|
E|--0---------3---------8-8-8-8-8-8-8-8-10-10-10-10-10-10-10-10-------------|


OUTRO


    E E Q   E E Q   E E E E E E Q   E E Q   E E Q   E E E E E E E E
e|--------------------------------------------------------------------------|
B|--------------------------------------------------------------------------|
G|--------------------------------------------------------------------------|
D|--------------------------------------------------------------------------|
A|--3---------------3---------------3---------------3-----------------------|
E|----0-0---3-0-0-----0-3-5-3-0-0-----0-0---3-0-0-----0-3-5-6-5-3-0---------|
 |
 |
 |  Tremolo pick, slowly bend up
e|--------------------------------------------------------------------------|
B|--------------------------------------------------------------------------|
G|--5b7---------------------------------------------------------------------|
D|--------------------------------------------------------------------------|
A|--------------------------------------------------------------------------|
E|--------------------------------------------------------------------------|
    (Tremolo pick the fifth fret of the G string and slowly bend up a whole
step by the next measure.)

    E E Q   E E Q   E E E E E E Q   E E Q   E E Q   E E E E E E Q
e|--------------------------------------------------------------------------|
B|--------------------------------------------------------------------------|
G|--------------------------------------------------------------------------|
D|--------------------------------------------------------------------------|
A|--3---------------3---------------3---------------3-----------------------|
E|----0-0---3-0-0-----0-3-5-3-0-0-----0-0---3-0-0-----0-3-5-6-5-3-----------|
 |
 |
 |  Tremolo pick
e|--------------------------------------------------------------------------|
B|--------------------------------------------------------------------------|
G|--pb7---------------------------------------------------------------------|
D|--------------------------------------------------------------------------|
A|--------------------------------------------------------------------------|
E|--------------------------------------------------------------------------|
    (Continue tremolo picking, fifth fret should be bent all the way up to
seventh fret now.)


************************************

| W   Whole note
| H   Half note
| Q   Quarter note
| E   Eighth note
| S   Sixteenth note
| .   Dotted note (add half of note length)
| +   Add two note lengths
| /   slide up
| \   slide down
| h   hammer-on
| p   pull-off
| ~   vibrato
|(+)  harmonic
| *   Palm Mute
| x   Mute note
| b   Bend
| pb  Pre-bend
| br  Bend release
| pbr Pre-bend release
| brb Bend release bend

************************************
Добавлено: 01.12.2013
Другие материалы по этой песне:
  • Аккорды и текст

Страница создана 01.12.2013
http://primanota.ru/disciple/rip-chords.htm
Привет, Гость.
Предлагаем пройти революционный курс по гитаре.
Подарок от PrimaNota.Ru, забирай!