PrimaNota.ru - самый крупный в мире бесплатный архив песенных текстов, аккордов, табулатур и нот


Disciple - Falling Star - текст песни, таба, видео

Регистрация Запомнить меня
Войти через:  Facebook Google Twitter Vk Yandex Mail.ru

Disciple - Falling Star - текст песни, таба, видео

Печатать
Просмотров: 128
Artist: Discipline
Song: Falling Star

Song: Falling Star

Band: DISCIPLE

From the 2008 album "Southern Hospitality".

Tabbed by: GuitarPerson748

Notes:

If you you like to play Disciple on the guitar, you may find this weird. It's in 
STANDARD tuning. No, I'm lying.

Also, the verses may seem weird, but they are played by three guitarsits. I am tabbing 
it for only one guitar part though.

(Intro Chords)Play 4x

The last time through don't play the octaves.

E |----------------------------------|
B |----------------------------------|
G |--10--6--8----13--12--13----------|
D |--10--6--8-----x---x---x----------|
A |--8---4--6----11--10--11----------|
E |--8---4--6------------------------|

(Verse) Play 2x

E |------------------------------------------|
B |----------4-4-4-4----------3-3-3-3--------|
G |------------------------------------------|
D |------------------------------------------|
A |------------------------------------------|
E |--1-1-1-1----------1-1-1-1----------------|
     . . . .          . . . .
                             1.         2.
E |-------------------------------------{-1-1-1-1-)---|
B |----------4-4-4-4--------(-3-3-3-3-)---------------|
G |---------------------------------------------------|
D |---------------------------------------------------|
A |--1-1-1-1---------1-1-1-1--------------------------|
E |---------------------------------------------------|
     . . . .         . . . .
E |------------------------------------------------------------------------|
B |------------------------------------------------------------------------|
G |------------------------------------------------------------------------|
D |----------5-5-5-5-3-3-3-3-6-6-6-6----------8-8-8-8----------10-10-10-10-|
A |------------------------------------------------------------------------|
E |--1-1-1-1--------------------------4-4-4-4----------6-6-6-6-------------|
     . . . .                          . . . .          . . . .
(Pre-Chorus) Palm muted
Repeat each riff (sympolized with the parenthesees) twice, Then go back to the first 
riff and repeat it then go to the chord afterwards.

E |-------------------------------------------|
B |-------------------------------------------|
G |----------------------------------------8--|
D |--(3-3-6-3-5-6-5-3)--(5-5-8-5-6-8-6-5)--8--|
A |----------------------------------------6--|
E |----------------------------------------6--|

(Chorus)

The chorus is basically the intro without the octaves and the Pre-Chorus added onto the
end of it.

(Intro)

(Verse)

(Pre-chorus)

(Chorus)

(SOLO)

E |--13---13---13-15-16-15-16-|--13-------------------------------|
B |--16b--16b-----------------|----13-16--------------------------|
G |---------------------------|----------15-13/12h13p12-----------|
D |---------------------------|-------------------------13h15p13--|
A |---------------------------|-----------------------------------|
E |---------------------------|-----------------------------------|

E |--------16----15b16b15-13-----|--------16----15b16b15-13-15-16b18---|
B |--13-13----13-------------16--|--13-13----13------------------------|
G |------------------------------|-------------------------------------|
D |------------------------------|-------------------------------------|
A |------------------------------|-------------------------------------|
E |------------------------------|-------------------------------------|
                                     Play this 4x.
E |--15b16b15-----------------------|----------------------|
B |-----------16--------------------|--------16------------|
G |--------------15-13/12-12h13p12--|--12-13---------------|
D |---------------------------------|----------------------|
A |---------------------------------|----------------------|
E |---------------------------------|----------------------|
     This is all one bend.
E |--------------------------|--15-16-13-16-11-16----16----16---16-----|
B |--(16b18b16b)-------------|--------------------14----13-------------|
G |-------------------15-13--|--------------------------------15---13--|
D |--------------------------|-----------------------------------------|
A |--------------------------|-----------------------------------------|
E |--------------------------|-----------------------------------------|

E |------------------------------------------------------------------------|
B |---------------------------------------------------------------13-16b18-|
G |---------------------------------------------------------13h15----------|
D |--------------------11h13h15----------11h13h15--13h15h17----------------|
A |-----------11h13h15----------11h13h15-----------------------------------|
E |--11h13h15--------------------------------------------------------------|

(Chorus)

(Outro)
Just play the intro and end on the E flat.

There you go. Enjoy!!!
Добавлено: 02.05.2012
Другие материалы по этой песне:
  • Аккорды и текст

Страница создана 02.05.2012
http://primanota.ru/disciple/falling-star-chords.htm
Привет, Гость.
Предлагаем пройти революционный курс по гитаре.
Подарок от PrimaNota.Ru, забирай!