PrimaNota.ru - самый крупный в мире бесплатный архив песенных текстов, аккордов, табулатур и нот


Dionisio Aguado - Etude Moderato In A Minor - таба, видео

Регистрация Запомнить меня
Войти через:  Facebook Google Twitter Vk Yandex Mail.ru

Dionisio Aguado - Etude Moderato In A Minor - таба, видео

Печатать
Просмотров: 353
E-|---Song:-Etude "Moderato in Am------------------|
A-|---Author:-Dionosio Aguado----------------------|
D-|---Transcription-by:Christian Liang-------------|
G-|---E-Mail:christian.liang@gmail.com-------------|   
B-|---http://www.classclef.com---------------------|
E-|---Enjoy!---------------------------------------|


Dionosio Aguado Etude "Moderato in Am"


Time Signature: 2/4

[1]

E|-----0-------0-------0-------0---|-----0-------0-------0-------0---|
B|---1---1---1---1---3---3---0---0-|---1---1---1---1---1---1---5---5-|
G|---------2-------4-------1-------|-2---------------2-------5-------|
D|---------------------------------|---------------------------------|
A|-0-------------------------------|---------0-----------------------|
E|---------------------------------|---------------------------------|
RH p i m i p i m i p i m i p i m i   p i m i p i m i p i m i p i m i   
LH   1   1 3 1   1 3 2   2 1         3 1   1   1   1 3 1   1 3 4   3   

[3]

E|-----0-------0-------0-------0---|-----0-------0-------0-------0---|
B|---3---3---3---3---0---0---3---3-|---1---1---1---1---1---1---1---1-|
G|-4---------------1---------------|-2-------------------------------|
D|---------2---------------2-------|---------2---------------2-------|
A|---------------------------------|-----------------3---------------|
E|---------------------------------|---------------------------------|
RH p i m i p i m i p i m i p i m i   p i m i p i m i p i m i p i m i   
LH 3 2   2 1 2     1       2 4   4   3 1   1 2 1   1 4 1   1 2 1   1     

[5]

E|-----0-------0-------0-------0---|-----0-------0-------0-------0---|
B|---1---1---1---1---3---3---0---0-|---1---1---1---1---2---2---2---2-|
G|---------2-------4-------1-------|-2---------------2-------0-------|
D|---------------------------------|---------------------------------|
A|-0-------------------------------|---------0-----------------------|
E|---------------------------------|---------------------------------|
RH p i m i p i m i p i m i p i m i   p i m i p i m i p i m i p i m i
LH   1   1 3 1   1 3 2   3 1         3 1   1   1   1 3 4   4   4   4

[7]

E|-----1-------0-------0-----------|---------------------------------|
B|---3---3---3---3---1---1-----3---|-----1-------1-------------------|
G|---------------------------1---1-|---2---2---2---2-----------------|
D|-3-------0-------2---------------|---------2-----------------------|
A|---------------------------------|-0---------------0---------------|
E|-------------------------0-------|---------------------------------|
RH p i m i p i m i p i m i p i m i   p i m i p i m i p                 
LH 3 4 1 4   4   4 2 1   1   1 4 1     2 1 2 3 2 1 2                   

[9]

E|-----0-------0-------0-------0---|-----0-------0-------0-------0---|
B|---0---0---0---0---0---0---3---3-|---1---1---1---1---1---1---5---5-|
G|-1-----------------------4-------|-2-----------------------5-------|
D|---------2-----------------------|---------2-----------------------|
A|---------------------------------|---------------------------------|
E|-----------------0---------------|-----------------0---------------|
RH p i m i p i m i p i m i p i m i   p i m i p i m i p i m i p i m i   
LH 1       3               3 2   2   3 1   1 2 1   1   1   1 3 4   4   

[11]

E|-----0-------0-------0-------0---|-----0-------0-------------------|
B|---5---5---3---3---3---3---1---1-|---0---0---0---0-----------------|
G|-5-------4-------4-------2-------|-1-------------------------------|
D|---------------------------------|---------2-----------------------|
A|---------------------------------|---------------------------------|
E|---------------------------------|-----------------0---------------|
RH p i m i p i m i p i m i p i m i   p i m i p i m i p 
LH 3 4   4 3 2   2 3 2   2 3 1   1   1       3

[13]

E|-----0-------0-------0-------0---|-----0-------0-------------------|
B|---0---0---0---0---0---0---3---3-|---1--1----1---1-----1-------1---|
G|-1-----------------------4-------|-2-----------------2---2---2---2-|
D|---------2-----------------------|--------2------------------------|
A|---------------------------------|-----------------0-------3-------|
E|-----------------0---------------|---------------------------------|
RH p i m i p i m i p i m i p i m i   p i m i p i m i p i m i p i m i   
LH 1       3               3 2   2   3 1   1 2 1   1   3 1 3 4 3 1 3     

[15]

E|---------------------------------|---------------------------------|
B|-----0-------0-------0-------3---|-----1-------1-------------------|
G|---2---2---2---2---1---1---1---1-|---2---2---2---2-----------------|
D|-0-------3-------2---------------|---------2-----------------------|
A|---------------------------------|-0---------------0---------------|
E|-------------------------0-------|---------------------------------|
RH p i m i p i m i p i m i p i m i   p i m i p i m i p 
LH 3   3 4 3   3 3 1   1   1 4 1       3 1 3 2 3 1 3 
Добавлено: 18.03.2012
Другие материалы по этой песне:
  • Аккорды и текст

Страница создана 18.03.2012
http://primanota.ru/dionisio-aguado/etude-moderato-in-a-minor-chords.htm
Привет, Гость.
Предлагаем пройти революционный курс по гитаре.
Подарок от PrimaNota.Ru, забирай!