PrimaNota.ru - самый крупный в мире бесплатный архив песенных текстов, аккордов, табулатур и нот


Dionisio Aguado - Minuet - таба, видео

Регистрация Запомнить меня
Войти через:  Facebook Google Twitter Vk Yandex Mail.ru

Dionisio Aguado - Minuet - таба, видео

Печатать
Просмотров: 317
Уроки эстрадного вокала в Санкт-Петербурге
E-|---Song:-Minuet---------------------------------|
A-|---Author:-Dionosio Aguado----------------------|
D-|---Transcription-by:Christian Liang-------------|
G-|---E-Mail:christian.liang@gmail.com-------------|
B-|---http://www.classclef.com---------------------|
E-|---Enjoy!---------------------------------------|


"Minuet" by Dionosio Aguado
Standard Tuning
==========================================================================

Part A
[1]
------------------------||-----------------------|------------------------|
------------------------||-----------------------|--1-------1-p-0---1-----|
------------------------||*2-------2-p-1---2-----|------------------------|
------------------2-----||*----------------------|------------------------|
------------------------||-0===================--|--0===================--|
------------------------||-----------------------|------------------------|
  |   |   |   |   |   |    |   |   |   |   |   |    |   |   |   |   |   |

R                   i      i       i       i         m       m       m
                           p                         p

L                   2      3       3   1   3         1       1       1

[4]
--0----------------------|------------------------|-----------------------|
------3---1-p-0----------|---------1--------------|-----------------------|
------------------2---1--|-2----------------------|-2-------2-p-1---2-----|
-------------------------|-----------------2------|-----------------------|
-------------------------|-0=====================-|-0====================-|
--0=====================-|------------------------|-----------------------|
  |   |   |   |   |   |    |   |   |   |   |   |    |   |   |   |   |   |
R a   m   m       i   i    i       m       p        i       i       i
  p                        p                        p
L     4   1       2   1    3       1       2        3       3   1   3

[7]                                                        ending1

-------------------------|------------------------|---------0-----------||
--1-------1-p-0---1------|-----------------4------|---------0-----------||
-------------------------|---------2--------------|---------1----------*||
-------------------------|-3=====================-|-----------------2--*||
--0=====================-|------------------------|---------------------||
-------------------------|------------------------|-0===================||
  |   |   |   |   |   |    |   |   |   |   |   |    |   |   |   |   |   |


R   m       m       m      p       i       m         p       a       p
    p                                                        m


L   1       1       1      2       1       4                 1       2

[10] ending2

E|----------0-------0------|
B|----------0--------------|
G|----------1--------------|
D|-------------------------|
A|-------------------------|
E|--0=====================-|
    |   |   |   |   |   |
R   p       a       a
            m
            i
L           1

==========================================================================
Part B

[11]

|-1=====================-|---------0-------0------|-----------------------|
|-----------------3-p-0--|-1----------------------|-3===============0-----|
|*--------0--------------|------------------------|---------------------1-|
|*0----------------------|------------------------|---------0-------------|
|------------------------|-3=====================-|-2---------------------|
|------------------------|------------------------|-----------------------|
  |   |   |   |   |   |    |   |   |   |   |   |    |   |   |   |   |   |

R   a       i       m      m       a       a        a       i       a   m
    p                      p                        p

L   1               4      1                        4                   1
                           3                        2


[14]

------------------0------|-5-------0--------------|---------0-------1-----|
----------1--------------|-----------------2------|-3---------------------|
--2----------------------|-----------------0------|-----------------------|
-------------------------|------------------------|-3====================-|
--0=====================-|------------------------|-----------------------|
-------------------------|------------------------|-----------------------|
  |   |   |   |   |   |    |   |   |   |   |   |    |   |   |   |   |   |
R i       m       a        a       a       i        m       a       a
  p                                        p        p

L 2       1                4               1        4               1
                                                    3

[17]                          ending1                   ending2

-------------------------|-----------------0-----||-----------------------|
----------1-------0------|-----------------------||-----------------------|
--2---------------1------|-2====================*||-2====================-|
--2=====================-|----------------------*||-----------------------|
-------------------------|-0-------0-------------||-0---------------------|
------------------0------|-----------------------||-----------------------|
  |   |   |   |   |   |    |   |   |   |   |   |    |   |   |   |   |   |

R   i       m       m      i       p       a         i
    p               i      p                         p
                                           p

L   3       1       1      3                         3
    2
Добавлено: 26.06.2012
Другие материалы по этой песне:
  • Аккорды и текст

Страница создана 26.06.2012
http://primanota.ru/dionisio-aguado/minuet-chords.htm
Привет, Гость.
Предлагаем пройти революционный курс по гитаре.
Подарок от PrimaNota.Ru, забирай!