PrimaNota.ru - самый крупный в мире бесплатный архив песенных текстов, аккордов, табулатур и нот


Dinosaur Jr - See You - таба, видео

Регистрация Запомнить меня
Войти через:  Facebook Google Twitter Vk Yandex Mail.ru

Dinosaur Jr - See You - таба, видео

Печатать
Просмотров: 119
Авторы: J Mascis

What a catchy song!!

MAIN RIFF (based on F C Bflat Bflat)

e|----8-8--5---8-8--5------------------|
b|----6-6--6---6-6--6------------------|
G|-------------------------------------|
D|-------------------------------------|
A|-------------------------------------|
E|-------------------------------------|


e|---------5-5--8--5-------5-5--8-/10-5--|
b|----------6---------------6------------|
G|-----7-----------------7---------------|
D|---8-----------------8-----------------|
A|---------------------------------------|
E|---------------------------------------|

MIDDLE RIFF (based on C  C Bflat Bflat)

e|---5---5---5--5---5---5---5---5------|
b|-8---8---8--8---8---8---8---8--------|
G|-------------------------------------|
D|-------------------------------------|
A|-------------------------------------|
E|-------------------------------------|

e|--x--x-x-x-5---x--x-x-x-5------------|
b|--x--x-x-x-6---x--x-x-x-6------------|
G|-------------------------------------|
D|-------------------------------------|
A|-------------------------------------|
E|-------------------------------------|

ANOTHER MIDDLE RIFF

e|------------5-6--5---5---------------|
b|-10-10--6-8--------8---8-6-8---------|
G|-10-10-------------------------------|
D|-10-10-------------------------------|
A|-8--8--------------------------------|
E|-------------------------------------|


e|--6-6--x-6-6--x-6-6--------------------|
b|--6-6--x-6-6--x-6-6--------------------|
G|--7-7--x-7-7--x-7-7--------------------|
D|--8-8--x-8-8--x-8-8--------------------|
A|--8-8--x-8-8--x-8-8--------------------|
E|--6-6--x-6-6--x-6-6--------------------|

FINAL RIFF


e|--5-5-5--3--8---5---5-6-5---5---------|
b|--6-6-6--5--10----8-------8-----------|
G|--7-7-7--5--10------------------------|
D|--7-7-7--5--10------------------------|
A|--5-5-5--3--8-------------------------|
E|--------------------------------------|

e|--5-5-5--3--8---5-h8-p5-5---5-h8-p5-5--5-h8-p5---5---|
b|--6-6-6--5--10---------------------------------8-----|
G|--7-7-7--5--10---------------------------------------|
D|--7-7-7--5--10---------------------------------------|
A|--5-5-5--3--8----------------------------------------|
E|-----------------------------------------------------|

LYRICS

F           C
hear me out 
Bb     Bb
then you ride away 
i don't doubt 
its what you meant to say 
all in all 
take a few things back 
all my love 
im about to crack 

c        Bb
didn't see you for a while 
C        Bb     
didn't notice it for quite some time 
F          C 
see me off
Bb        Bb 
gather all your stuff 

not enough 
but thats all we got 
tell me why 
when i... 

its alright 
i still wanna... 
can you tell me when... 
do you know what this all means to me 
the intentions hard to know 
and i don't want what you just let go 

im about to 
ive no doubt 
meant that way 
theres a place we don't wanna go 
hesitate like we always do 

didn't see you for a while 
ive been so wrapped up for quite some time 
can you tell me who ill be 
do you know what this all means to me

Comments/corrections to Adam Rytwinski arytwins@lakeheadu.ca




Добавлено: 14.04.2012
Другие материалы по этой песне:
  • Аккорды и текст

Страница создана 14.04.2012
http://primanota.ru/dinosaur-jr/see-you-chords.htm
Привет, Гость.
Предлагаем пройти революционный курс по гитаре.
Подарок от PrimaNota.Ru, забирай!