PrimaNota.ru - самый крупный в мире бесплатный архив песенных текстов, аккордов, табулатур и нот


Dinosaur Jr - Sideways - текст песни, таба, видео

Регистрация Запомнить меня
Войти через:  Facebook Google Twitter Vk Yandex Mail.ru

Dinosaur Jr - Sideways - текст песни, таба, видео

Печатать
Просмотров: 92
-------------------------------------------------------------------------------
                             Sideways - Dinosaur Jr.
-------------------------------------------------------------------------------
Tabbed by: Jeff


finger-picked acoustic guitar:

e|-----------0--4-0---------0----4-0----------0----4-0---------0-----4-0-----|
B|---------------------------------------------------------------------------|
G|------6--------------6-----------------6----------------6------------------|
D|--------6----------6---6----(6)------6---6----(6)-----6---6----(6)---------|
A|--0------------------------------------------------------------------------|
E|---------------------------------------------------------------------------|

e|---0--0---0--0----0--0---0--0----------------------------------------------|
B|---5--7---5--5----5--7---5--5----------------------------------------------|
G|---7--7---7--7----7--7---7--7---etc----------------------------------------|
D|---7--7---7--7----7--7---7--7----------------------------------------------|
A|---------------------------------------------------------------------------|
E|---------------------------------------------------------------------------|

D
Flyin' sideways cause
  A
I can't rely on me to
E
Get you there

e|----------------------------------|
B|-10---10-------10----10-----------|
G|----------9---------------9-------|
D|-7----7--------7-----7------------|
A|----------7---------------7-------|
E|----------------------------------|

D
Only one way
        A
I could tell you not to stall
E
Antique is rare

e|----------------------------------|
B|-10---10-------10----10-----------|
G|----------------------------------|
D|-7----7--------7-----7------------|
A|----------7---------------7-------|
E|----------------------------------|

(return to intro)

D
Flyin' sideways
           A
Cause it's only way to get to
E
Where you're going

e|----------------------------------|
B|-10---10-------10----10-----------|
G|----------------------------------|
D|-7----7--------7-----7------------|
A|----------7---------------7-------|
E|----------------------------------|

D
It's the same day
      A
But I feel it callin' me
E
Instead i've flown

e|----------------------------------|
B|-10---10-------10----10-----------|
G|----------------------------------|
D|-7----7--------7-----7------------|
A|----------7---------------7-------|
E|----------------------------------|

D
Flyin' sideways cause
  A
I can't rely on me to
E
Get you there

e|----------------------------------|
B|-10---10-------10----10-----------|
G|----------------------------------|
D|-7----7--------7-----7------------|
A|----------7---------------7-------|
E|----------------------------------|

D
Only one way
        A
I could tell you not to stall
E
Antique is rare


e|---------------------------------------------------------------------------|
B|---------------------------------------------------------------------------|
G|---------------------------------------------------------------------------|
D|--0------------------7-9-7---9^9^9--7---7----------------------------------|
A|----4-2--4-4/7--7/9-------------------9-----------------------------------|
E|---------------------------------------------------------------------------|

(intro w/ drums)

| /  slide up
| \  slide down
| h  hammer-on
| p  pull-off
| ~  vibrato
| +  harmonic
| x  Mute note
===============================================================================
Добавлено: 29.07.2012
Другие материалы по этой песне:
  • Аккорды и текст

Страница создана 29.07.2012
http://primanota.ru/dinosaur-jr/sideways-chords.htm
Привет, Гость.
Предлагаем пройти революционный курс по гитаре.
Подарок от PrimaNota.Ru, забирай!