PrimaNota.ru - самый крупный в мире бесплатный архив песенных текстов, аккордов, табулатур и нот


Dinosaur Jr - Little Fury Things - текст песни, таба, видео

Регистрация Запомнить меня
Войти через:  Facebook Google Twitter Vk Yandex Mail.ru

Dinosaur Jr - Little Fury Things - текст песни, таба, видео

Печатать
Просмотров: 152
This is how I play this on my acoustic... 

CAPO ON THE 2ND FRET!!!! (everything relative to the capo!!!)
                                        
INTRO:                                   
      F                  Am         Asus2
e:-----------------------0----------0---|
B:----1------------------1----------0---|
G:----2------------------2----------2---|   x 3
D:----3------------------2----------2---|
A:----3------------------0----------0---|
E:----1-(0)(1)--------------------------|
           \    
  I use my thumb on and off a few times with the rhythm but thats just me!

VERSE 1:
                                   
     C        D       D6add9 Cadd9 Cmaj7    
e:---0-0-0----0--0-0--0-------0---0---|
B:---5-5-5-/8-7--8-7--3-------3---0---|
G:---0-0-0----0--0-0--2-------0---0---|
D:---5-5-5----7--7-7--0-------2---2---|
A:---3-3-3----5--5-5--2-------3---3---|
E:------------------------------------|

(Alternative to above – I find it easier to sing and do it this way!)
      C         D       D6add9 Cadd9 Cmaj7
e:---0-0-03p0--2-2h32--0-------0--0------|
B:---1-1-1--1--3-3--3--3-------3--0------|
G:---0-0-0--0--2-2--2--2-------0--0------|
D:---2-2-2--2--0-0--0--0-------2--2------|
A:---3-3-3--3----------2-------3--3------|
E:---------------------------------------|                                  


C        D                   D6add9     Cadd9 Cmaj7  
Grab, it falls away from me, guess I'll crawl
C        D                   D6add9     Cadd9 Cmaj7 
Grab, it all to smash in me, again I'll crawl
C      D                 D6add9       Cadd9 Cmaj7 
Try to think what's over me, makes me crawl
C        D              D6add9            Cadd9 Cmaj7  
Then she runs away from me, faster than I crawl

Verse 2:
    A9            D6add9     
e:----------------0--------------|
B:-----9-9-9-0----3--------------|
G:----------------2--------------|
D:-----7-7-7------0------0-------|
A:-----7-7-7------2---0h2--0-----|
E:---0----------------------0----|


A9        D6add9   
I stop to call
A9       D6add9          
Tried to feel it all
A9                D6add9                C   
Stuck my hand and pulled real hard, got stretched in miles, not in yards
A9     D6add9   
Then I read
A9        D6add9   
About all those who bleed
A9            D6add9         C   
All over your lies, sunlight brings the rage out in your eyes


Bridge:
                                       (Any wee fill here sounds cool tho)
      G6  Cmaj9 Cadd9  G6        1st fill  2nd fill 
e:------------------------------:-0---:------------|
B:----3----3----3------3----3--—:--3--:-3p0-3p0----|
G:----4----4----5------4----4---:---0-:----0---0---|
D:----0----2----2------0----2---:-----:------------|  x3
A:----2----3----3------2----3---:-----:------------|
E:--3-3--------------3-3--------:-----:------------|

    E7sus4
e:-------xxx-------xxx-------xxx---------|
B:-------xxx-------xxx-------xxx---------|
G:--2-2--xxx--2-2--xxx--2-2--xxx---------|
D:--0-0--xxx--0-0--xxx--0-0--xxx---------|
A:--2-2--xxx--2-2--xxx--2-2--xxx---------|
E:--0-0--xxx--0-0--xxx--0-0--xxx----3~~--|

Repeat Verse 1: (x2)
C        D                   D6add9     Cadd9 Cmaj7  
Grab, it falls away from me, guess I'll crawl
C        D                   D6add9     Cadd9 Cmaj7 
Grab, it all to smash in me, again I'll crawl
C      D                 D6add9       Cadd9 Cmaj7 
Try to think what's over me, makes me crawl
C        D              D6add9            Cadd9 Cmaj7  
Then she runs away from me, faster than I crawl

So it goes...
Добавлено: 03.03.2012
Другие материалы по этой песне:

Страница создана 24.02.2012
http://primanota.ru/dinosaur-jr/little-fury-things-chords.htm
Привет, Гость.
Предлагаем пройти революционный курс по гитаре.
Подарок от PrimaNota.Ru, забирай!