PrimaNota.ru - самый крупный в мире бесплатный архив песенных текстов, аккордов, табулатур и нот


Dinosaur Jr - Im Insane - текст песни, таба, видео

Регистрация Запомнить меня
Войти через:  Facebook Google Twitter Vk Yandex Mail.ru

Dinosaur Jr - Im Insane - текст песни, таба, видео

Печатать
Просмотров: 176
Уроки эстрадного вокала в Санкт-Петербурге
Авторы музыки: J Mascis
Авторы текста: J Mascis
Intro/Verse:

Verse riff:

4X

   Cm        A#                 G#        F                       Cm
-|-18-15--13-15-13-15-16-15-13--15-------------------------------------------|-
-|---------------------------------16--16-18-16-18-20-18-16-15-16-13--15-16--|-
-|---------------------------------------------------------------------------|-
-|---------------------------------------------------------------------------|-
-|---------------------------------------------------------------------------|-
-|---------------------------------------------------------------------------|-
                                                                              

   A#        G#        F
-|---------------15-16----|-
-|-13--15-16-18--------15-|-
-|------------------------|-
-|------------------------|-
-|------------------------|-
-|------------------------|-


 You can use power chords on verse, what sounds better than the normal chords.

Cm         A#          Cm
Throat starts to drain
            G#           F             Cm
Ive done it way too many times to go away
          A#             Cm*
Gone in a state, by my water
         Dm*
Can you bring it back to me
          Cm*
Will you follow? 


*these ones you do the normal chord and this:

-|-3-3-----3-----3-------5-5-----5h6-5-------3-3-----3-----3-----|
-|-4---4-----4-----4-----6---6---------6-----4---4-----4-----4---|
-|-5-----5-----5-----5---7-----7---------7---5-----5-----5-----5-|
-|-5---------------------7-------------------5-------------------|
-|-3---------------------5-------------------3-------------------|
-|---------------------------------------------------------------|

then you repeat verse riff 2 times.

Chorus:

Cm           A#              G#
I know youre somewhere, Im insane
Cm       A#           G#
Its your needs on my brain
Cm       A#              G#
Smack me out, our eyes exchange
Cm             A#                 G#
To have the strength to stake my claim

Solo:

You can improv in the D# scale

the other guitar does Cm A# G#

Bridge:

         Cm
Have you placed it?
       A#
I cant taste it
       G#
Will I waste it?
     Cm
Cant trace it
        A#
Time to face it

Chorus again until it ends.

Tabbed by P.O.
Добавлено: 05.05.2012
Другие материалы по этой песне:
  • Аккорды и текст

Страница создана 04.05.2012
http://primanota.ru/dinosaur-jr/im-insane-chords.htm
Привет, Гость.
Предлагаем пройти революционный курс по гитаре.
Подарок от PrimaNota.Ru, забирай!