PrimaNota.ru - самый крупный в мире бесплатный архив песенных текстов, аккордов, табулатур и нот


Dinosaur Jr - Kracked - текст песни, таба, видео

Регистрация Запомнить меня
Войти через:  Facebook Google Twitter Vk Yandex Mail.ru

Dinosaur Jr - Kracked - текст песни, таба, видео

Печатать
Просмотров: 163
Another Jayloumurph classic
----------------------------------------------------------------------------
                             Kracked - Dinosaur Jr
----------------------------------------------------------------------------

INRO

E:----5----5--------5----5--------5--5--5--5--5--5--5--5--5--|
B:----6----6--6-----5----6--6-----6--6--6--7--7--5--7--5--8--|
G:----5h7--7-----7--7----7-----7--7--7--7--5--5--5--5--5--5--|
D:-----------------------------------------------------------|
A:-----------------------------------------------------------|
E:-----------------------------------------------------------|

E:----5----5--------5----5--------5--5--5-----------|
B:----6----6--6-----5----6--6-----6--6--6--7--5-----|
G:----5h7--7-----7--7----7-----7--7--7--7-----------|   x2
D:--------------------------------------------------|
A:--------------------------------------------------|
E:--------------------------------------------------|


VERSE 1

Cadd9    Dsus4
Come on babe

Cadd9    A5
Come on set me free

Cadd9       E5
Paid for my crimes

Cadd9    Dsus4
Come on babe

Cadd9    A5
Come on rescue me

Cadd9      E5
Just this last time


FILL 1

e:-----------------------------------------------------------|
B:-----------------------------------------------------------|
G:-----------------------------------------------------------|    x2
D:----9--9--9--9--9--9--9--9--9 -5--5--5--5--5--5--5--5------|
A:----7--7--7--7--7--7--7--7--7--3--3--3--3--3--3--3--3------|
E:-----------------------------------------------------------|

e:-----------------------------------------------------------|
B:-----------------------------------------------------------|
G:----12-12-12-12-11--11-11-11----7-7-7-7-4--4-4-4-----------|    x2
D:-----------------------------------------------------------|
A:-----------------------------------------------------------|
E:-----------------------------------------------------------|

(solo over Em C chord progression)


VERSE 2

Em
I plead the case

Cadd
I need to space

Em           Cadd9
Don't let it wait

Em
I plead the case

Cadd
I need to space

Em           Cadd9
Don't let it wait

FILL 2

E:---------------------------------------------------------------------|
B:---------------------------------------------------------------------|
G:----12-12-12-12--11-11-11-11-7-7-7-7--4--4-4-4-----------------------|
D:---------------------------------------------------------------------|
A:----10-10-10-10--9--9--9--9--5-5-5-5--2--2-2-2-----------------------|
E:---------------------------------------------------------------------|

E:---------------------------------------------------------------------|
B:-------------------------12--12--12--12------------------------------|
G:----7-/9-/10-\9-/10-/11--14--14--14--14--{slight bend}---------------|
D:---------------------------------------------------------------------|
A:----5-/7-/8--\7-/8--/9-----------------------------------------------|
E:---------------------------------------------------------------------|

VERSE 3

Cadd9    Dsus4
Come on babe

Cadd9    A5
Come on set me free

Cadd9       E5
Paid for my crimes

Cadd9    Dsus4
Come on babe

Cadd9    A5
Come on rescue me

Cadd9      E5
Just this last time

And so it goes...

| /  slide up
| \  slide down
| h  hammer-on
| p  pull-off
| ~  vibrato
| +  harmonic
| x  Mute note
===========================================================================
Добавлено: 17.05.2012
Другие материалы по этой песне:
  • Аккорды и текст

Страница создана 20.04.2012
http://primanota.ru/dinosaur-jr/kracked-chords.htm
Привет, Гость.
Предлагаем пройти революционный курс по гитаре.
Подарок от PrimaNota.Ru, забирай!