PrimaNota.ru - самый крупный в мире бесплатный архив песенных текстов, аккордов, табулатур и нот


Dimmu Borgir - Heavenly Perverse - текст песни, таба, видео

Регистрация Запомнить меня
Войти через:  Facebook Google Twitter Vk Yandex Mail.ru

Dimmu Borgir - Heavenly Perverse - текст песни, таба, видео

Печатать
Просмотров: 143
Авторы музыки: ICS Vortex, Galder, Shagrath
Авторы текста: Silenoz
Tunning E A D G B E

Intro (slightly dist.)
|----------0--------------------------------------------------------|
|------------------1-0h1p0------0-----------------------------------|
|-------0--------0---------0------3---------------------------------|
|-----2--------2--------------------2-------------------------------|
|---2--------2----------------1-------------------------------------|
|-0-----------------------------------------------------------------|

|----------0--------------------------------------------------------|
|------------------1-0h1p0------0-----------------------------------|
|-------0--------0---------0------3---------------------------------|
|-----2--------2--------------------3-------------------------------|
|---2--------2------------------------------------------------------|
|-0---------------------------1-------------------------------------|
                                                           (2 times)

Riff 1
|-------------------------------------------------------------------|
|-------------------------------------------------------------------|
|-------------------------------------------------------------------|
|-6-6-6-6-6-6-6-6-6-6-6-6-6--7-7-7-7-7-7-7/3--3-3\6-----------------|
|-6-6-6-6-6-6-6-6-6-6-6-6-6--7-7-7-7-7-7-7/3--3-3\6-----------------|
|-4-4-4-4-4-4-4-4-4-4-4-4-4--5-5-5-5-5-5-5/1--1-1\4-----------------|
                                                           (1 time)
Riff 2a
|----0----------0--------------0----------0-------------------------|
|----0----------0--------------0----------0-------------------------|
|----0----------0--------------0----------0-------------------------|
|-2--2-----3-2--2-----3-3-3-2--2-----3-2--2------3-3-3--------------|
|-2--2-----3-2--2-----3-3-3-2--2-----3-2--2------3-3-3--------------|
|-0--0-----1-0--0-----1-1-1-0--0-----1-0--0------1-1-1--------------|
                                                           (1 time)

Play Riff 1 one time
Play Riff 2a one time
Play Riff 1 one time

Riff 2b
|-------------------------------------------------------------------|
|-------------------------------------------------------------------|
|----3----------3--------------3----------3-------------------------|
|-2--2-----3-2--2-----3-3-3-2--2-----3-2--2-----3-3-3---------------|
|-2--1-----3-2--1-----3-3-3-2--1-----3-2--1-----3-3-3---------------|
|-0--------1-0--------1-1-1-0--------1-0--------1-1-1---------------|
                                                           (1 time)

Play Riff 1 one time
Play Riff 2b one time
Play Riff 1 one time


Riff 3
|-------------------------------------------------------------------|
|-------------------------------------------------------------------|
|-------------------------------------------------------------------|
|-4-4-4-4-4-4-4-4-4-4-4-4-4-4-4-4-4-2-2-2-4-4-4---------------------|
|-4-4-4-4-4-4-4-4-4-4-4-4-4-4-4-4-4-2-2-2-4-4-4---------------------|
|-2-2-2-2-2-2-2-2-2-2-2-2-2-2-2-2-2-0-0-0-2-2-2---------------------|

|-------------------------------------------------------------------|
|-------------------------------------------------------------------|
|-------------------------------------------------------------------|
|-7-7-7-7-7-7-7-7-7-7-7-7-7-7-7-7-7-2-2-2-5-5-5---------------------|
|-7-7-7-7-7-7-7-7-7-7-7-7-7-7-7-7-7-2-2-2-5-5-5---------------------|
|-5-5-5-5-5-5-5-5-5-5-5-5-5-5-5-5-5-0-0-0-3-3-3---------------------|

|-------------------------------------------------------------------|
|-------------------------------------------------------------------|
|-------------------------------------------------------------------|
|-4-4-4-4-4-4-4-4-4-4-4-4-4-4-4-4-4-2-2-2-4-4-4---------------------|
|-4-4-4-4-4-4-4-4-4-4-4-4-4-4-4-4-4-2-2-2-4-4-4---------------------|
|-2-2-2-2-2-2-2-2-2-2-2-2-2-2-2-2-2-0-0-0-2-2-2---------------------|

|-------------------------------------------------------------------|
|-------------------------------------------------------------------|
|-------------------------------------------------------------------|
|-7-7-7-7-7-7-7-7-11-11-11-11-11-11-3-3-3-5-5-5---------------------|
|-7-7-7-7-7-7-7-7-11-11-11-11-11-11-3-3-3-5-5-5---------------------|
|-5-5-5-5-5-5-5-5--9--9--9--9--9--9-1-1-1-3-3-3---------------------|

|-------------------------------------------------------------------|
|-------------------------------------------------------------------|
|-------------------------------------------------------------------|
|-4-4-4-4-4-4-4-4-4-4-4-4-4-4-4-4-4-4-4-4-4-4-4---------------------|
|-4-4-4-4-4-4-4-4-4-4-4-4-4-4-4-4-4-4-4-4-4-4-4---------------------|
|-2-2-2-2-2-2-2-2-2-2-2-2-2-2-2-2-2-2-2-2-2-2-2---------------------|

|-------------------------------------------------------------------|
|-------------------------------------------------------------------|
|-------------------------------------------------------------------|
|-7-7-7-7-7-7-7-7-7-7-7-7-7-7-7-7-7-7-7-7-7-7-7---------------------|
|-7-7-7-7-7-7-7-7-7-7-7-7-7-7-7-7-7-7-7-7-7-7-7---------------------|
|-5-5-5-5-5-5-5-5-5-5-5-5-5-5-5-5-5-5-5-5-5-5-5---------------------|

|-------------------------------------------------------------------|
|-------------------------------------------------------------------|
|-9-9-9-9-9-9-9-9-9-9-9-9-9-9-9-9-9-9-9-9-9-9-9---------------------|
|-9-9-9-9-9-9-9-9-9-9-9-9-9-9-9-9-9-9-9-9-9-9-9---------------------|
|-7-7-7-7-7-7-7-7-7-7-7-7-7-7-7-7-7-7-7-7-7-7-7---------------------|
|-------------------------------------------------------------------|

|-------------------------------------------------------------------|
|-------------------------------------------------------------------|
|-5-5-5-5-5-5-5-5-5-5-5-5-5-5-5-5-5-5-5-5-5-5-5---------------------|
|-5-5-5-5-5-5-5-5-5-5-5-5-5-5-5-5-5-5-5-5-5-5-5---------------------|
|-3-3-3-3-3-3-3-3-3-3-3-3-3-3-3-3-3-3-3-3-3-3-3---------------------|
|-------------------------------------------------------------------|
                                                           (2 times)

Repeat the 7/9/9 and 3/5/5 chords then

Transition 1
|-------------------------------------------------------------------|
|-------------------------------------------------------------------|
|-------------------------------------------------------------------|
|-6/5--6/5----6-----------------------------------------------------|
|-6/5--6/5----6-----------------------------------------------------|
|-4/3--4/3----4-----------------------------------------------------|


Riff 4
Gtr 1
|-------------------------------------------------------------------|
|-------------------------------------------------------------------|
|-------------------------------------------------------------------|
|-2-3-6--7/6-7-6---3-6-2-3-6/5-6--6-6-6-8-8-8-----------------------|
|-2-3-6--8/7-8-6---3-6-2-3-6/5-6--7-7-7-8-8-8-----------------------|
|-0-1-4--------4---1-4-0-1-4/3-4--------6-6-6-----------------------|

Gtr 2
|-------------------------------------------------------------------|
|-------------------------------------------------------------------|
|-------------------------------------------------------------------|
|-2-3-6--7/6-7-6---3-6-2-3-6/5-6--7-7-7-8-8-8-----------------------|
|-2-3-6--7/6-7-6---3-6-2-3-6/5-6--7-7-7-8-8-8-----------------------|
|-0-1-4--5/4-5-4---1-4-0-1-4/3-4--5-5-5-6-6-6-----------------------|
                                                           (4 times)

Riff 5
|-------------------------------------------------------------------|
|-------------------------------------------------------------------|
|-----7-----7-----8-----8-----7-----7-------------------------------|
|-----5-----5-----6-----6-----5-----5-------------------------------|
|-0-0---0-0---0-0---0-0---0-0---0-0----3-3-----1-1------------------|
|------------------------------------------4-4----------------------|
  . .   . .   . .   . .   . .   . .    . . . . . .

|-------------------------------------------------------------------|
|-------------------------------------------------------------------|
|-----7-----7-----8-----8------9------9-----------------------------|
|-----5-----5-----6-----6-----11-----11-----------------------------|
|-0-0---0-0---0-0---0-0---0-0----0-0----3-3-------------------------|
|-------------------------------------------4-4-3-3-----------------|
  . .   . .   . .   . .   . .    . .    . . . . . .       (4 times)

Play Riff 4 (both Gtrs plays like Gtr 2 riff) 2 times then:

Riff 6 ?

|-------------------------------------------------------------------|
|-------------------------------------------------------------------|
|-------------------------------------------------------------------|
|-------------------------------------------------------------------|
|-------------------------------------------------------------------|
|-------------------------------------------------------------------|

|-------------------------------------------------------------------|
|-------------------------------------------------------------------|
|-------------------------------------------------------------------|
|-------------------------------------------------------------------|
|-------------------------------------------------------------------|
|-------------------------------------------------------------------|

Play Riff 5 4 times
Play Riff 2b 1 time
Play Riff 1 1 time
Play Riff 2b 1 time
Play Riff 1 1 time then:

Riff 7
Gtr 1
|----0------------------0-------------------------------------------|
|----0------------------0-------------------------------------------|
|----0------------------0---101010----------------------------------|
|-2--2---------------2--2----------999-101010-----------------------|
|-2--2---------------2--2---------------------888888-555-7----------|
|-0--0--111-111-111--0--0--------------------------------0----------|
        ... ... ...

|-0------------------0----------------------------------------------|
|-0------------------0----------------------------------------------|
|-0------------------0---101010-------------------------------------|
|-2---------------2--2----------999-101010--------------------------|
|-2---------------2--2---------------------888888-5-----------------|
|-0--111-111-111--0--0----------------------------------------------|
     ... ... ...

Gtr 2
|-------------------------------------------------------------------|
|-------------------------------------------------------------------|
|-------------------------------------------------------------------|
|-2----------------------2------------------------------------------|
|-2----------------------2------------------------------------------|
|-0---000--111-111-111---0---000--11111111--------------------------|
      ...  ... ... ...       ...  ........

|-------------------------------------------------------------------|
|-------------------------------------------------------------------|
|-------------------------------------------------------------------|
|-2----------------------2------------------------------------------|
|-2----------------------2------------------------------------------|
|-0---000--111-111-111---0---000--11111111--------------------------|
      ...  ... ... ...       ...  ........

Play Riff 1 1 time
Play Riff 7 1 time then:

End Riff
|-------------------------------------------------------------------|
|-------------------------------------------------------------------|
|-------------------------------------------------------------------|
|-666-6--666-6--666-6--666-6--777777/3-333-6--2---------------------|
|-666-6--666-6--666-6--666-6--777777/3-333-6--2---------------------|
|-444-4--444-4--444-4--444-4--555555/1-111-4--0---------------------|
  ... .  ... .  ... .  ... .
Добавлено: 27.05.2012
Другие материалы по этой песне:

Страница создана 20.03.2012
http://primanota.ru/dimmu-borgir/heavenly-perverse-chords.htm
Привет, Гость.
Предлагаем пройти революционный курс по гитаре.
Подарок от PrimaNota.Ru, забирай!