PrimaNota.ru - самый крупный в мире бесплатный архив песенных текстов, аккордов, табулатур и нот


Dimmu Borgir - Hunnerkongens Sorgsvarte Ferd Over Steppene - текст песни, бас-таба, видео

Регистрация Запомнить меня
Войти через:  Facebook Google Twitter Vk Yandex Mail.ru

Dimmu Borgir - Hunnerkongens Sorgsvarte Ferd Over Steppene - текст песни, бас-таба, видео

Печатать
Просмотров: 159
Авторы музыки: Dimmu Borgir
Авторы текста: Dimmu Borgir
Song: Hunnerkongens Sorgsvarte Ferd Over Steppene
Band: Dimmu Borgir
Year: 1994
Album: For All Tid
Genre: Black Metal
Tuning: Standard (GDAE)

Intro
G|----------------|---------------|
D|----------------|---------------|
A|0-------3-------|5------8-7-8---|
E|----------------|---------------|

Riff 1
|----------------|---------------|
|----------------|---------------|
|0-0-0-0-3-3-3-3-|5-5-5-5-8-7-8--|
|----------------|---------------|

Riff 2
|----------------|----------------|----------------|
|----------------|----------------|----------------|
|2---2---2---2---|2---2---2---0---|3---3---3---3---|
|----------------|----------------|----------------|

|----------------|
|----------------|
|----------------|
|3---3---0---0---|

|----------------|----------------|----------------|
|----------------|----------------|----------------|
|2---2---2---2---|2---2---2---0---|3---3---3---3---|
|----------------|----------------|----------------|

|----------------|
|5---5---2---2---|
|----------------|
|----------------|

Riff 3
|--------------|----------------|----------------|----------------|
|--------------|----------------|----------------|----------------|
|4-4-4-4-4-4-5-|5-5-4-4-4-------|--------7-7-7-8-|8-8-------------|
|--------------|----------5-5-5-|5-5-5-5---------|----------------|
(Little tricky at timing, listen to the song and it will come to you)

Riff 4
|------------------------|------------------------|
|------------------------|------------------------|
|7---7-7---7-6---6-7-7---|9---9-9---9-10---10-9-9-|
|------------------------|------------------------|

Structure
Intro
Riff 1x4
Riff 2x2
Riff 1x4 (Singing starts)
Riff 2x2
Riff 3x8
Riff 4x4
Riff 3x4
Riff 4x4
The last note that actually is in the beginning of "Raabjørn Speiler Draugheimens 
Skodde" is an A7, have fun
contact me at: bercowich@hotmail.com
Добавлено: 26.07.2012
Другие материалы по этой песне:

Страница создана 17.03.2012
http://primanota.ru/dimmu-borgir/hunnerkongens-sorgsvarte-ferd-over-steppene-chords.htm
Привет, Гость.
Предлагаем пройти революционный курс по гитаре.
Подарок от PrimaNota.Ru, забирай!