PrimaNota.ru - самый крупный в мире бесплатный архив песенных текстов, аккордов, табулатур и нот


Dimmu Borgir - Sorgens Kammer - текст песни, таба, видео

Регистрация Запомнить меня
Войти через:  Facebook Google Twitter Vk Yandex Mail.ru

Dimmu Borgir - Sorgens Kammer - текст песни, таба, видео

Печатать
Просмотров: 391
As recorded by Dimmu Borgir
                               (StOrmblast 2005)

Transcribed by Andrew Cox "Dross"

Gtr I (E A D G B E) - 'Guitar 1'
Gtr II (E A D G B E) - 'Guitar 2'

Standard Guitar Tuning E

Tablature Legend
----------------
~ - Let ring
tr - Trill
T - Tremolo Picking
S- Slide
Pm/. - Palm Mute

  Gtr I
Pick the intro twice clean and then let it ring with distortion, then start again with 
guitar
E|------------------------------------0-------|
B|-------------------------------------0------|
G|-------0-------0---------0-------0-----0~---|
D|-----2-------2---------2-------2-------2~---|
A|---2-------2---------2-------2---------2~---|
E|-0-------1-------1-0-------1-----------0~---|


  Gtr II
 Rythm for second picking round of intro
E|---------------------------|
B|---------------------------|
G|-0------0------0------0----|
D|-2------2------2------2----|
A|-2------2------2------2----|
E|-0------1------0------3----|


  Gtrs I, II
 Pre Chorus
E|------------------------0----|
B|-------------------------0---|
G|-0-0-0---0-0-0---0-0--0------|
D|-2-2-2---2-2-2---2-2--2------|
A|-2-2-2---2-2-2---2-2--2------|
E|-0-0-0---1-3-1---0-0--0------|


  Gtrs I, II
ChoruS
Tremolo pick all of this and trill between the 6th and 7th fret

E|-----------------------|
B|-----------------------|
G|-----------------------|
D|-6-7-6tr7-6-4----------|
A|--------------4-5-6----|
E|-----------------------|
 TTTTTTTTTTTTTTTTTTTT

  Gtrs I, II
                                        PM--|        PM--|
  play pre chorus than this and alternate
E|------------------0---0-----------------------------------------|
B|------------------0---0-----------------------------------------|
G|-3-3-3--3-3--7--0---0---3-3-3--3-3--7--------9S7S9--------9S7S9-|
D|-3-3-3--3-3--7--2---2---3-3-3--3-3--7--------7-5-7--------7-6-7-|
A|-2-2-2--1-1--5--2---2---2-2-2--1-1--5--0-0-0--------0-0-0-------|
E|-2-2-2--1-1--5--0---0---2-2-2--1-1--5--0-0-0--------0-0-0-------|
                                         . . .        . . .

  Gtr I
 Breakdown
pick this in clean mode then kick in on the 3rd or 4th time with distortion with second 
this is also the end of the song
E|---------------------------|
B|---------------------------|
G|---------------------------|
D|-----7-----7----------5~---|
A|---8---8-----8---8----6~---|
E|-0-------0-----0------0~---|
Добавлено: 05.05.2012
Другие материалы по этой песне:

Страница создана 10.03.2012
http://primanota.ru/dimmu-borgir/sorgens-kammer-chords.htm
Привет, Гость.
Предлагаем пройти революционный курс по гитаре.
Подарок от PrimaNota.Ru, забирай!