PrimaNota.ru - самый крупный в мире бесплатный архив песенных текстов, аккордов, табулатур и нот


Die Arzte - Wie Am Ersten Tag - аккорды и текст, видео

Регистрация Запомнить меня
Войти через:  Facebook Google Twitter Vk Yandex Mail.ru

Die Arzte - Wie Am Ersten Tag - аккорды и текст, видео

Печатать
Просмотров: 297
Wie Am Ersten Tag
Die Arzte
Die Ärzte - Wie Am Ersten Tag

1. Strophe (stark gedämpft):
              A           D              A        G
Hey du, bleib steh'n! Ich weiß, wohin du gehst!
                  A              D              G       E
Du brauchst nicht so zu tun, als ob du nicht verstehst.
F                      C                       G
Du bist auf dem Weg zu ihr, sie gehörte mal zu mir.

F+C gezupft:
F                     C                               G     Ab
Gestern hab ich sie erkannt, sie ging mit dir Hand in Hand.

   F              C
1:-1----1-------|-3-------------|
2:-1------1-----|-5----5--------|
3:-2--------2---|-5------5------|
4:-3----------3-|-5--------5----|
5:-3------------|-3----------3--|
6:-1------------|---------------|

Ab hier Akkorde 1x anschlagen:
             A               D                    A       G
Für mich hat sie heut' keine Zeit mehr, es ist Schluß.
            A                G             D
Gib ihr zum Abschied von mir einen letzten Kuss.
A                             F                                   D
Daß ich geweint hab, sag' ihr nicht, auch nicht, daß mein Herz zerbricht,
                             E                               F   G
Sag nicht, daß ich's nicht ertrag', sag ihr nur, daß ich sie mag.

Refrain:
            A             G             D
Ich mag sie noch genauso, wie am ersten Tag.
            A             G             D
Ich mag sie noch genauso, wie am ersten Tag.
            A             G             D
Ich mag sie noch genauso, wie am ersten Tag.
            A             D             A    E G
Ich mag sie noch genauso, wie am ersten Tag.

2. Strophe:
          A              D                 A     G
Vor einem Jahr war ich allein, da traf ich sie.
          A                  D            G    Fill1 E/B
Ich hab getanzt mit ihr, und hatte weiche Knie.

Fill1 (schnell hammern):
1:----------------------|
2:----------------------|
3:-7^9^7^9^7^9^7^9(4x)--|

F+C gezupft:
F                           C                                    G
Wir tanzten bis spät in die Nacht, dann hab ich sie nach haus' gebracht.

Normal:
F                  C                         G   Ab
Und dann vor ihrer Tür bekam ich einen Kuß dafür.

Ab hier Akkorde 1x anschlagen:
             A                 D                A    G
Wir war'n verliebt, doch alles das ist jetzt vorbei,
               A              G            D
Denn sie liebt dich und darum gebe ich sie frei.
A                             F                                   D
Daß ich geweint hab, sag' ihr nicht, auch nicht, daß mein Herz zerbricht,
                             E                               F   G
Sag nicht, daß ich's nicht ertrag', sag ihr nur, daß ich sie mag.


Interlude-Refrain (mit seltsamen Effekten; Text abgekürzt):
    A       G      D              A       G      D
1:-----------------------------|------------------------------|
2:-----------------------------|------------------------------|
3:------5------5------5------5-|-----5------5------5------7---|
4:---7------5------4------5----|--7------5------4-------------|
5:-----------------------------|-----------------------5------|
6:-----------------------------|------------------------------|
                            i.m.s.n.g-s. w.a.e. t.

    A       G      D              A       G      D
1:-----------------------------|------------------------------|
2:-----------------------------|------------------------------|
3:------5------5------5------5-|-----5------7------5------5---|
4:---7------5------4------5----|--7-------------7------7------|
5:-----------------------------|---------5--------------------|
6:-----------------------------|------------------------------|
                            i.m.s.n.g-s. w.a.e. t.

Bridge:
*(h: x x x f7 f7 f7
  e: x x x f12 f12 f12
  G: x x x f12 f12 x)

B*                            E*
Ich geh' nach Hause, und dann schließe ich mich ein.
B*                         E*
Ich weiß, nie wieder werde ich derselbe sein.
G                         B*
Doch ich bitte dich, wenn sie mal nach mir fragt:
E*                        G*   A(Bass)
Sag' ihr nur, daß ich sie mag.

Refrain:
     A       G      D              A       
G      D
 1:-----------------------------|------------------------------|
 2:-----------------------------|------------------------------|
 3:------5------5------5------5-|-----5------5------5------7---|
 4:---7------5------4------5----|--7------5------4------4------|
 5:-----------------------------|------------------------------|
 6:-----------------------------|------------------------------|
i.m.s.n.g-s. w.a.e. t.       i.m.s.n.g-s. w.a.e. t.

E*                        G*
Sag' ihr nur, daß ich sie mag.

Ab hier kommt wieder normale Begleitung mit Solo dazwischen!!

                A      G    D                    A   
        G
1:--------------------------5-------5---5---5---------------------------------|
2:--------------------------5-------5---5---5------17-------------------------|
3:--------------------------7b9-----7b9-7b9-7b9-------17--14----f+14----------|
4:-------------------------------------------------------------------12-10----|
5:-+0(-5 bis 0)----------------------------------0-------------------------12-|
6:----------------------------------------------------------------------------|
                 n.G-s.w.A.E.t.

      D                      A               G          D
1:--------------------------------------------------------------------------|
2:--------------------------------------------------------------------------|
3:----f+11-f+14-------------------------------------------------------------|
4:---------------f+16b17----------------------------------------------------|
5:-12--------------------17------------7-5---5-7-5---------+-+-+--+++++-+-+-|
6:-----------------------------------------8-------8-5----------------------|
                               i.m.s.n.g-s.  w.a.     e.t.

             A                 G         D               A
1:----------------------------------------------------------------------------|
2:f+17--f+17------------------------------------------------------------------|
3:---------------14b17--14b17--14b17b14--f+14-f+14--(12)-14-14-14-14-14-14-14-|
4:----------------------------------------------------------------------------|
5:----------------------------------------------------------------------------|
6:----------------------------------------------------------------------------|

      G                            D
1:----------------------------------------------------------------15-17//5---|
2:----------------------------------------------------------15-17------------|
3:---14-14-14-14-14-14-14-14-14--12-14-14-14-14-14-14-14-14------------------|
4:---------------------------------------------------------------------------|
5:---------------------------------------------------------------------------|
6:---------------------------------------------------------------------------|
Добавлено: 07.06.2012
Другие материалы по этой песне:

Страница создана 07.06.2012
http://primanota.ru/die-arzte/wie-am-ersten-tag-chords.htm
Привет, Гость.
Предлагаем пройти революционный курс по гитаре.
Подарок от PrimaNota.Ru, забирай!