PrimaNota.ru - самый крупный в мире бесплатный архив песенных текстов, аккордов, табулатур и нот


Die Arzte - no future - текст песни, видео

Регистрация Запомнить меня
Войти через:  Facebook Google Twitter Vk Yandex Mail.ru

Die Arzte - no future - текст песни, видео

Печатать
Просмотров: 103
Уроки эстрадного вокала в Санкт-Петербурге
Anm.:Akkorde
 C A F D
1:-3-|-5-|-1-|-5-|
2:-5-|-5-|-1-|-7-|
3:-5-|-6-|-2-|-7-|
4:-5-|-7-|-3-|-7-|
5:-3-|-7-|-3-|-5-|
6:---|-5-|-1-|---|

-E oun, e tu, e oun, tu, srie, fцr

Intro:

4x:
 F D
1:--10-/-8----10-/-5--|
2:---x-/-x-----x-/-x--|
3:--12-/-10---12-/-7--|
4:--12-/-10---12-/-7--|
5:--10-/-8----10-/-5--|
6:--------------------|

1.Strophe:
C A
 Du sitzt allein zuhaus, niemand ruft bei dir an
F D
und du fragst dich immer wieder, wie es dazu kommen kann.
C A
 Frьher warst du beliebt, du konntest jede kriegen.
F D
 Jetzt bist du abgestiegen, oh woran mag das wohl liegen?

Refrain:
C D A
Keine Freunde - ohne neue Haarfrisur.
C D A
Keine Arbeit - ohne neue Haarfrisur.
C D A
Keine Frauen - ohne neue Haarfrisur.
C D A
Keine Zukunft - ohne neue Haarfrisur.

Interlude:

 F D F D
1:--10-/-8----10-/-5--|--10-/-8----10-/-5--|
2:---x-/-x-----x-/-x--|---x-/-x-----x-/-x--|
3:--12-/-10---12-/-7--|--12-/-10---12-/-7--|
4:--12-/-10---12-/-7--|--12-/-10---12-/-7--|
5:--10-/-8----10-/-5--|--10-/-8----10-/-5--|
6:--------------------|--------------------|

2.Strophe:
C A
 Du fьhlst dich ausgeschlossen, du willst dazugehцren.
F D
 Du wдrst gern angesagter und du willst die Fraun betцren.
C A
 Ich geb dir einen Tipp, du solltest es probieren.
F D
 Willst du die Welt verfьhren, dann musst du erstmal investieren.

Refrain:
C D A
Keine Freunde - ohne neue Haarfrisur.
C D A
Keine Arbeit - ohne neue Haarfrisur.
C D A
Keine Frauen - ohne neue Haarfrisur.
C D A
Keine Zukunft - ohne neue Haarfrisur.

Interlude

3.Strophe:
C A
 Schau цfter in den Spiegel, lass dir deine Haare schneiden,
F D
 Die Welt legt leider viel zu viel Wert auf ДuЯerlichkeiten.
C A
 Nutze den Augenblick, mach dich mal wieder schick,
F D
 mangelnde Kцrperpflege bricht dir sonst noch das Genick.

Refrain:
C D A
Keine Freunde - ohne neue Haarfrisur.
C D A
Keine Arbeit - ohne neue Haarfrisur.
C D A
Keine Frauen - ohne neue Haarfrisur.
C D A
Keine Zukunft - ohne neue Haarfrisur.

Outro:

11x:
 F D
|1:--10-/-8-------10-/-5----|
|2:---x-/-x--------x-/-x----|
|3:--12-/-10------12-/-7----|
|4:--12-/-10------12-/-7----|
|5:--10-/-8-------10-/-5----|
|6:-------------------------|
| |
|1:---------8----------5//--|
|2:----------(8x)-----------|
|3:---------5----------2//--|
|4:-------------------------|
|5:-------------------------|
|6:-------------------------|
Добавлено: 25.01.2014
Другие материалы по этой песне:
  • Текст (слова)

Страница создана 25.01.2014
http://primanota.ru/die-arzte/no-future-lyrics.htm
Привет, Гость.
Предлагаем пройти революционный курс по гитаре.
Подарок от PrimaNota.Ru, забирай!