PrimaNota.ru - самый крупный в мире бесплатный архив песенных текстов, аккордов, табулатур и нот


Die Arzte - Nichts Gesehen - таба, видео

Регистрация Запомнить меня
Войти через:  Facebook Google Twitter Vk Yandex Mail.ru

Die Arzte - Nichts Gesehen - таба, видео

Печатать
Просмотров: 179
Song: Nichts gesehen
Artist: Die Ärzte
Album: Lied vom Scheitern (Single)
Tabber: Manuel Maier

The guitars are tuned half step down.
I'm not 100% sure about a few parts, but it should get you started :)
Plz comment & rate. Thanks :)

h = Hammer On
p = Pull Off
b = bend

Chords used:
    F#  D   b   A   C#
eb|-2---5---2---5---4-
Bb|-2---7---3---5---6-
Gb|-2---7---4---6---6-
Db|-4---7---4---7---6-
Ab|-4---5---2---7---4-
Eb|-2-----------5-----


>>>> V E R S E  1 <<<<

###### The verse is played like this:
Guitar 1 (distortion):
eb|-2-2----5-5------2-2-------------|
Bb|-2-2----7-7------3-3-------------|
Gb|-2-2----7-7------4-4-------------|
Db|-4-4----7-7------4-4-------------|
Ab|-4-4----5-5------2-2-------------|
Eb|-2-2-----------------------------|

Eine Frau wird vergewaltigt,
in der Stadt morgens um zehn.

Fill:
eb|-------------|
Bb|-------------|
Gb|-------------|
Db|-7h9-7h9p9---|
Ab|-------------|
Eb|-------------|

Und wir standen zwar daneben,
doch wir haben nichts gesehen.

Fill:
eb|-------------|
Bb|-------14-12-|
Gb|-11-14-------|
Db|-------------|
Ab|-------------|
Eb|-------------|

###### Now the 2nd guitar starts:
Guitar 2 (Clean):
eb|---------------------------------|
Bb|---------------------------------|
Gb|---------------------------------|
Db|---------7-7-7-7-4-4-4-4-4-4-7-7-|
Ab|-4-4-4-4-5-5-5-5-2-2-2-2-2-2-5-5-|
Eb|-2-2-2-2-------------------------|

Ein Mädchen wird von seinen Eltern,
schon seit Jahren eingesperrt.
Und das sind zwar unsere Nachbarn- aber seltsam,
wir haben nie etwas bemerkt.

>>>> R E F R A I N <<<<
    
guitar 1 (disto):
eb|-5-5---7-7----2-2----|
Bb|-7-7---9-9----2-2----|
Gb|-7-7---9-9----2-2----|
Db|-7-7---9-9----4-4----|
Ab|-5-5---7-7----4-4----|
Eb|--------------2-2----|
    D     E      F#
Wir haben nichts gesehen.
F#
Wir sind die Mehrheit,
        b
und wir mischen uns nicht ein.
          A
Wir haben eigene Probleme.

guitar 1 (disto):
eb|-------------------------|
Bb|-------------------------|
Gb|-6-7-----6----7---9----7-|
Db|-6-7-----6----7---9----7-|
Ab|-4-5-----4----5---7----5-|
Eb|-------------------------| F#
    Jeder stirbt für sich allein.
(F#)          
Wir sind die Mehrheit.
        b
Niemand wirft den ersten Stein.
          A
Und darum muss sich keiner schämen.
guitar 1 (disto):
eb|-------------------------|
Bb|-------------------------|
Gb|-6-7-----6----7---9----7-|
Db|-6-7-----6----7---9----7-|
Ab|-4-5-----4----5---7----5-|
Eb|-------------------------|
    Jeder stirbt für sich allein.

#### After "allein", guitar 1 starts with the normal verse riff.
#### The second guitar starts a short solo wich is played like this:

guitar 2 (here with distortion):
eb|-12b14----------------14b15-12b14----------------------------|
Bb|--------14b15--15b17---------------14b15--15b17--15-15h17h15-|
Gb|-------------------------------------------------------------|
Db|-------------------------------------------------------------|
Ab|-------------------------------------------------------------|
Eb|-------------------------------------------------------------|

>>>> V E R S E  2 <<<<

#### Guitar 1 and 2 play their usual verse riffs.

Ein Mann geht durch die Straßen.
Er sieht anders aus als wir.
Niemand möchte mit ihm reden,
denn er ist ja nicht von hier.

#### Guitars 1 and 2 keep on playing their parts,
#### a 3rd guitar plays something like this:

guitar 3 (clean):
eb|-2-2-x-2-2--2-2-x-2-2--2-2-x-2-5-5-4-2--2-2-|
Bb|-2-2-x-2-2--2-2-x-2-2--2-2-x-2-5-5-4-2--2-2-|
Gb|--------------------------------------------|
Db|--------I'm not quite sure about------------|
Ab|--------this timing, but you should---------|
Eb|--------be able to get it ;)----------------|

Und dann kommen ein paar Leute -
schlagen ihn ein bisschen tot.
Wir haben wieder nichts gesehen. Ich schätze mal,
wir saßen schon beim Abendbrot.

>>>> R E F R A I N <<<< 
guitar 1 (disto):
eb|-5-5---7-7----2-2----|
Bb|-7-7---9-9----2-2----|
Gb|-7-7---9-9----2-2----|
Db|-7-7---9-9----4-4----|
Ab|-5-5---7-7----4-4----|
Eb|--------------2-2----|
    D     E      F#
Wir haben nichts gesehen.
F#
Wir sind die Mehrheit,
        b
und wir mischen uns nicht ein.
          A
Wir haben eigene Probleme.

Guitar 1 (distortion):
eb|-------------------------|
Bb|-------------------------|
Gb|-6-7-----6----7---9----7-|
Db|-6-7-----6----7---9----7-|
Ab|-4-5-----4----5---7----5-|
Eb|-------------------------| F#
    Jeder stirbt für sich allein.
(F#)          
Wir sind die Mehrheit.
        b
Niemand wirft den ersten Stein.
          A
Und darum muss sich keiner schämen.
guitar 1 (disto):
eb|-------------------------|
Bb|-------------------------|
Gb|-6-7-----6----7---9----7-|
Db|-6-7-----6----7---9----7-|
Ab|-4-5-----4----5---7----5-|
Eb|-------------------------|
    Jeder stirbt für sich allein.

D                   b
Wir haben nichts gesehen.
                 F#
Wir haben nichts gehört.
                 E
Wir haben nichts gesagt,
                       A  D
denn es hat uns nichts ge-stört.
(D)                  b
Doch irgendwann bist du es dann,
              A
der um Hilfe schreit.
                    C#
Dann bist du in der Minderheit.

>>>> R E F R A I N <<<<

Wir sind die Mehrheit,
und wir mischen uns nicht ein.
Wir haben eigene Probleme.
Jeder stirbt für sich allein.

Wir sind die Mehrheit,
und du kannst dir sicher sein.
Wir vergießen keine Träne.
Jeder lebt,
jeder kämpft,
jeder stirbt für sich allein.
Добавлено: 19.03.2012
Другие материалы по этой песне:

Страница создана 19.03.2012
http://primanota.ru/die-arzte/nichts-gesehen-chords.htm
Привет, Гость.
Предлагаем пройти революционный курс по гитаре.
Подарок от PrimaNota.Ru, забирай!