PrimaNota.ru - самый крупный в мире бесплатный архив песенных текстов, аккордов, табулатур и нот


Die Arzte - Dinge Von Denen - таба, видео

Регистрация Запомнить меня
Войти через:  Facebook Google Twitter Vk Yandex Mail.ru

Die Arzte - Dinge Von Denen - таба, видео

Печатать
Просмотров: 141
Авторы музыки: Rodrigo González
Авторы текста: Donna Blitz, Rodrigo González
Dinge von denen
(Guitar-Version)
Geräusch
(2003)
Musik: Rod Gonzales - Text: Rod Gonzales/Donna Blitz

(Dist.-Guit. im CHORUS und in der BRIDGE: ganz unten)

CHORDS:

INTRO + VERSE + INTERLUDE:

    Fm    E+   Ab/Eb Bb/D   Db   Ab/C   Bbm  Csus4   C
E |-----|-----|-----|-----|-----|-----|-----|-----|-----|
B |--1--|--1--|--1--|-----|-----|-----|-----|-----|-----|
G |--1--|--1--|--1--|--3--|--1--|--1--|-----|--0--|--0--|
D |--3--|--2--|--1--|--3--|--3--|--1--|--3--|--3--|--2--|
A |-----|-----|-----|--5--|--4--|--3--|--4--|--3--|--3--|
E |-----|-----|-----|-----|-----|-----|--6--|-----|-----|

CHORUS:

     F     C    D5    Eb    Bb    C5    Db    Ab    Bbm  Csus4
E |--1--|-----|-----|-----|-----|-----|-----|-----|-----|-----|
B |--1--|--5--|-----|--8--|--3--|-----|--6--|-----|--2--|--6--|
G |--2--|--5--|--7--|--8--|--3--|--5--|--6--|--5--|--3--|--5--|
D |--3--|--5--|--7--|--8--|--3--|--5--|--6--|--6--|--3--|--5--|
A |-----|--3--|--5--|--6--|--1--|--3--|--4--|--6--|--1--|--3--|
E |-----|-----|-----|-----|-----|-----|-----|--4--|-----|-----|

BRIDGE:

   Fm/C   Db   Dm_b5  Bbm  Csus4  C   
E |-----|-----|-----|-----|-----|-----|
B |-----|-----|-----|-----|-----|-----|
G |--1--|--1--|--1--|--3--|--0--|--0--|
D |--3--|--3--|--3--|--3--|--3--|--2--|
A |--3--|--4--|--5--|--4--|--3--|--3--|
E |-----|-----|-----|-----|-----|-----|


INTRO:

Fm


VERSE:

            Fm    E+
Neulich kam sie 
     Ab/Eb    Bb/D
und redete zuviel,
         Db              Ab/C
über die Frau von einem besten Freund 
Bbm              Csus4 C
und ihr falsches Spiel.

                   Fm   E+
Sie will nur sein Geld, 
        Ab/Eb          Bb/D
Glamour und die große Welt.
                  Db              Ab/C
Doch immer hält sie ihn fern und quält ihn gern.
     Bbm              Csus4 C
Mein Hals hat sich gewellt!


CHORUS:

(Anmerkung: D5 und C5 am Ende der ersten beiden Zeilen werden nur sehr Kurz als
Übergangsakkorde zu Eb bzw. Db gespielt; s. TAB unten)

F                              C                       D5
Das sind Dinge, von denen ich gar nichts wissen will.
Eb                         Bb                    C5
Lass mich doch in Ruh und texte mich nicht zu.
Db                                  Ab   
Das sind Dinge, von denen ich keine Ahnung haben will.
Bbm                           Csus4            C
Behalt den Kram für Dich! Es interessiert mich nicht!


         TAB:

                   ...gar nichts wissen will,  
                      C                            D5  Eb
          E  ... --|------------------|------------------|----- ...
          B  ... --|--5---5---5---5---|--5---5---5-----8-|--8-- ...
          G  ... --|--5---5---5---5---|--5---5---5-7___8-|--8-- ...
          D  ... --|--5---5---5---5---|--5---5---5-7___8-|--8-- ...
          A  ... --|--3---3---3---3---|--3---3---3-5___6-|--6-- ...
          E  ... --|------------------|------------------|----- ...
                      1 + 2 + 3 + 4 +    1 + 2 + 3 + 4 +    1 + ...


VERSE:

            Fm  E+
Neulich kam er 
      Ab/Eb         Bb/D
grad frisch von der OP,
            Db               Ab/C
künstlicher Darmausgang. Na, schönen Dank - 
     Bbm        Csus4 C
mein Hunger war passé.

               Fm  E+
Er hörte nicht auf 
    Ab/Eb           Bb/D
und ging mehr ins Detail.
           Db                  Ab/C     
Ihm ist es wohl egal, ob ich's hören will.
    Bbm              Csus4
Ich wünschte mir ein Beil!
                         C
(Hack! Hack! Hack! Hack! Hack! Hack! Hack! Hack!)


CHORUS:

F                              C                       D5
Das sind Dinge, von denen ich gar nichts wissen will.
Eb                         Bb                    C5
Lass mich doch in Ruh und texte mich nicht zu.
Db                                  Ab   
Das sind Dinge, von denen ich keine Ahnung haben will.
Bbm                           Csus4            C
Behalt den Kram für Dich! Es interessiert mich nicht!


INTERLUDE: (wie VERSE)
  
                  Fm   E+  Ab/Eb   Bb/D
Ich hör Dir nicht zu! 
             Db    Ab/C   Bb   Csus4  C
Lass mich in Ruh!


BRIDGE:

     Fm/C                  Db   
Mein Haus, mein Boot, mein Pferd.
Dm_b5            Db
Wie viel ist die Villa wert?
    Fm/C                      Db
Was ziehst Du Dir da in deine Nase?
Dm_b5         Db
Marius-Müller-Osterhase
Fm/C                Db
Macht sie's mit dem Mund,
Bbm              Csus4             C
oder mit Claudia Schiffer's Hund?


CHORUS:

F                              C                       D5
Das sind Dinge, von denen ich gar nichts wissen will.
Eb                         Bb                    C5
Lass mich doch in Ruh und texte mich nicht zu.
Db                                  Ab   
Das sind Dinge, von denen ich keine Ahnung haben will.
Bbm                           Csus4            C
Behalt den Kram für Dich! Es interessiert mich nicht!

F                              C                       D5
Das sind Dinge, von denen ich gar nichts wissen will.
Eb                           Bb                        C5
Hol doch mal tief Luft. Ich schick Dich in die Gruft.
Db                                  Ab   
Das sind Dinge, von denen ich keine Ahnung haben will.
Bbm                           Csus4            C
Behalt den Kram für Dich! Es interessiert mich nicht!

...


-----------------------------------------------------------------------------


Dist.-Guit. im CHOURUS:


       Das sind Dinge, von denen ich gar nichts wissen will.
   F                                 C                          D5  Eb
E |----------------|----------------|----------------|----------------|
B |----------------|----------------|----------------|----------------|
G |----------------|----------------|----------------|----------------|
D |3_______________|________________|----------------|----------------|
A |3_______________|________________|3_______________|______--3-5___6_|
E |1_______________|________________|----------------|------3---------|
   1 + 2 + 3 + 4 +  1 + 2 + 3 + 4 +  1 + 2 + 3 + 4 +  1 + 2 + 3 + 4 +

   Lass mich doch in Ruh'        und Texte mich nicht zu.
   (Eb)                              Bb                         C5  Db
E |----------------|----------------|----------------|----------------|
B |----------------|----------------|----------------|----------------|
G |----------------|----------------|----------------|----------------|
D |----------------|----------------|----------------|----------------|
A |(6)_____________|________________|----------------|--------1-3___4_|
E |----------------|----------------|----------------|------1---------|
   1 + 2 + 3 + 4 +  1 + 2 + 3 + 4 +  1 + 2 + 3 + 4 +  1 + 2 + 3 + 4 +
   
   Das sind Dinge, von denen ich keine Ahnung haben will.
   (Db)                              Ab                         
E |----------------|----------------|----------------|----------------|
B |----------------|----------------|----------------|----------------|
G |----------------|----------------|----------------|----------------|
D |----------------|----------------|----------------|----------------|
A |(4)_____________|________________|----------------|----------------|
E |----------------|----------------|----------------|----------------|
   1 + 2 + 3 + 4 +  1 + 2 + 3 + 4 +  1 + 2 + 3 + 4 +  1 + 2 + 3 + 4 +
   
   Behalte den Kram für dich,    es interessiert mich nicht!
   Bbm                               Csus4            C              
E |----------------|----------------|----------------|----------------|
B |----------------|----------------|----------------|----------------|
G |----------------|----------------|----------------|----------------|
D |----------------|--------3_______|2___________3___|5---------------|
A |--------1_______|1_______--------|----------------|----------------|
E |----------------|----------------|----------------|----------------|
   1 + 2 + 3 + 4 +  1 + 2 + 3 + 4 +  1 + 2 + 3 + 4 +  1 + 2 + 3 + 4 +

-----------------------------------------------------------------------------


Dist.-Guit. in der BRIDGE:


  Mein Haus, mein Boot...
       Fm/C             Db               Dm_b5            Db             
E ----|----------------|----------------|----------------|----------------|
B ----|----------------|----------------|----------------|----------------|
G ----|----------------|----------------|----------------|----------------|
D ----|----------------|----------------|----------------|----------------|
A ----|----------------|----------------|----------------|----------------|
E 8\\\|1_______________|________________|________________|____________8\\\|  \\\ = Slide
       1 + 2 + 3 + 4 +  1 + 2 + 3 + 4 +  1 + 2 + 3 + 4 +  1 + 2 + 3 + 4 +

   Was ziehst du dir da...
       Fm/C             Db               Dm_b5            Db             
    E |----------------|----------------|----------------|----------------|
    B |----------------|----------------|----------------|----------------|
    G |----------------|----------------|----------------|----------------|
    D |----------------|----------------|----------------|----------------|
    A |----------------|----------------|----------------|----------------|
    E |1_______________|________________|________________|________--8-8\\\|
       1 + 2 + 3 + 4 +  1 + 2 + 3 + 4 +  1 + 2 + 3 + 4 +  1 + 2 + 3 + 4 +
   
      Macht sie's mit...
       Fm/C             Db               Bm               Csus4             
    E |----------------|----------------|----------------|----------------|
    B |----------------|----------------|----------------|------------_t_-|  __t__ = 8tel-Triole/8th-Triplet
    G |----------------|----------------|----------1-3-1-3h5____3h5-5-555-|
    D |----------------|----------------|--------3-------|----------------|
    A |----------------|----------------|1_______--------|----------------|
    E |1_______________|________________|----------------|----------------|
       1 + 2 + 3 + 4 +  1 + 2 + 3 + 4 +  1 + 2 + 3 + 4 +  1 + 2 + 3 + 4 +

       C                F        
    E |___T___-----_t_-|----  ...   __T__ = 4tel-Triole/4th-Triplet
    B |---4--6 7-7 764-|6___  ...
    G |5---------------|----  ...
    D |----------------|(3__) ...
    A |----------------|(3__) ... (weiter mit CHORUS Tab)
    E |----------------|(1__) ...
Добавлено: 15.05.2015
Другие материалы по этой песне:

Страница создана 13.05.2012
http://primanota.ru/die-arzte/dinge-von-denen-chords.htm
Привет, Гость.
Предлагаем пройти революционный курс по гитаре.
Подарок от PrimaNota.Ru, забирай!