PrimaNota.ru - самый крупный в мире бесплатный архив песенных текстов, аккордов, табулатур и нот


Diary Of Dreams - Flood Of Tears - текст песни, таба, видео

Регистрация Запомнить меня
Войти через:  Facebook Google Twitter Vk Yandex Mail.ru

Diary Of Dreams - Flood Of Tears - текст песни, таба, видео

Печатать
Просмотров: 303
Уроки эстрадного вокала в Санкт-Петербурге
                                FLOOD OF TEARS
                         As recorded by Diary Of Dreams
                    (From the 1997 Album BIRD WITHOUT WINGS)

Transcribed by Corey Hunter @ www.coreyhunter.com
Please visit: www.diaryofdreams.de

 Intro/Verse
  Acoustic ballad Q=68
 4/4
  Gtr I
  S S S S +S  S S S S S S S +S  S S S   S S S S +S  S S S S S S S +S  S S S
|-------------------------------------|--------------------------------------|
|-------3-(3)-------------3-(3)-------|-------3-(3)-------------3-(3)--------|
|-----0-------0---------0-------0-----|-----0-------0---------0-------0------|
|---4-----------4-----4-----------4---|---4-----------4-----4-----------4----|
|-5---------------5-5---------------5-|-5---------------5-5---------------0--|
|-------------------------------------|--------------------------------------|


  S S S S +S  S S S S S S S +S  S S S   S S S S +S  S S S S S S S +S  S S S
|-------------------------------------|-------------------------------------|
|-------3-(3)-------------3-(3)-------|-------3-(3)-------------3-(3)-------|
|-----0-------0---------0-------0-----|-----0-------0---------0-------0-----|
|---4-----------4-----4-----------4---|---4-----------4-----4-----------4---|
|-2---------------2-2-----------------|-----------------------------------0-|
|-----------------------------------0-|-3---------------3-3-----------------|


  S S S S +S  S S S S S S S +S  S S S  5x
|--------------------------------------|| * Play last bar an extra time
|-------3-(3)-------------3-(3)-------o||   5th time.
|-----0-------0---------0-------0------||
|---4-----------4-----4-----------4----||
|-5---------------5-5---------------5-o||
|--------------------------------------||



 Chorus
|-------------------------------------||--------------------------------------|
|-------3-(3)-------------3-(3)-------||o-------3-(3)-------------3-(3)-------|
|-----0-------0---------0-------0-----||------0-------0---------0-------0-----|
|---4-----------4-----4-----------4---||----4-----------4-----4-----------4---|
|-3---------------3-3---------------3-||o-2---------------2-2---------------2-|
|-------------------------------------||--------------------------------------|


|-------------------------------------|-------------------------------------|
|-------3-(3)-------------3-(3)-------|-------3-(3)-------------3-(3)-------|
|-----0-------0---------0-------0-----|-----0-------0---------0-------0-----|
|---4-----------4-----4-----------4---|---4-----------4-----4-----------4---|
|-------------------------------------|-----------------------------------0-|
|-0---------------0-0---------------0-|-3---------------3-3-----------------|

                  
|--------------------------------------||-------------------------------------|
|-------3-(3)-------------3-(3)-------o||-------3-(3)-------------3-(3)-------|
|-----0-------0---------0-------0------||-----0-------0---------0-------0-----|
|---4-----------4-----4-----------4----||---4-----------4-----4-----------4---|
|-2---------------2-2---------------2-o||-3---------------3-3---------------3-|
|--------------------------------------||-------------------------------------|


Duration Legend
---------------
W - whole; H - half; Q - quarter; E - 8th; S - 16th
+ - note tied to previous
Добавлено: 14.07.2012
Другие материалы по этой песне:

Страница создана 14.07.2012
http://primanota.ru/diary-of-dreams/flood-of-tears-chords.htm
Привет, Гость.
Предлагаем пройти революционный курс по гитаре.
Подарок от PrimaNota.Ru, забирай!