PrimaNota.ru - самый крупный в мире бесплатный архив песенных текстов, аккордов, табулатур и нот


Devo - Monster Man - аккорды и текст, видео

Регистрация Запомнить меня
Войти через:  Facebook Google Twitter Vk Yandex Mail.ru

Devo - Monster Man - аккорды и текст, видео

Печатать
Просмотров: 97
Monster Man
Devo
SONG:   MONSTERMAN
ARTIST: DEVO
TAB BY: DON CZARSKI
EMAIL:  GUITARZAN7@HOTMAIL.COM

                      MONSTERMAN
                         DEVO

INTRO:  (Based on the synthesizer)

    G  G D   G  G D   F  F G   F  F G   G  G D

E ------------------------------------------------
B ------------------------------------------------
G --------------------5/7/7----5/7-7--------------
D --5/7-7---5/7-7-----------5--------5--5/7-7-----
A --------5-------5---------------------------5---
E ------------------------------------------------


VERSE:
 D
Say goodbye to everything you knew
                             
Say hello to what a man can do
  F  F    G
[Monster man]
  F  F    G
[Monster man]
 C
Fear's his one and only dream
                               D
It's all obscene to a monster man
  C    B    A   B    C   Fm    C    D
[Man, man, man man, man, man, man]

 C
The man's a monster
                
A beast on the run
 D
He's a virus you can't stop with a gun
 F
Mutant plans from a mind insane
 D                                  
Loud screams from the House of Pain


INTERLUDE/SOLO :  Improvise if need be
  
   D                             G 
E ----------------------------------------6-----------------------
B -------------------------------6/8--6-8---8-6-8---6/8-6-8--10br-
G -5/7-5h7-7-5h7---5/7-5h7-7-5h7----------------------------------
D ----------------------------------------------------------------
A ----------------------------------------------------------------
E ----------------------------------------------------------------

THEN TO FINISH - FAST STACCATO LIKE PICKING 
                                                   D
E --------------------555--777---999--11-11-11----15b---
B -----------555--777-----------------------------------
G -555--777---------------------------------------------
D ------------------------------------------------------
A ------------------------------------------------------
E ------------------------------------------------------

BREAK:
 Bb           
There is no 
 C
Zombie in the closet
 Bb                
There is no
       C
thing underneath the bed
Eb                  D       
  There's no alien abduction
     Bb                G
The monster's in your head

 
   G  G D   G  G D    F  F G   F  F G   G  G D

E ------------------------------------------------
B ------------------------------------------------
G --------------------5/7/7----5/7-7--------------
D --5/7-7---5/7-7-----------5--------5--5/7-7-----
A --------5-------5---------------------------5---
E ------------------------------------------------


VERSE:
 D
Say what you want, say what you will
   
Said and done, the threat is still

  F  F    G
[Monster man]
  F  F    G
[Monster man]

 C
They say beauty's in the eye
                             D
Of the beholder so don't try
 
To understand him

 C
Everyday is halloween
                               D   
It's all obscene to a monster man

  C    B    A   B    C   Fm    C     D
[Man, man, man man, man, man, man]
Добавлено: 16.09.2015
Другие материалы по этой песне:
  • Аккорды и текст

Страница создана 06.10.2014
http://primanota.ru/devo/monster-man-chords.htm
Привет, Гость.
Предлагаем пройти революционный курс по гитаре.
Подарок от PrimaNota.Ru, забирай!