PrimaNota.ru - самый крупный в мире бесплатный архив песенных текстов, аккордов, табулатур и нот


Devin Townsend - Regulator - текст песни, таба, видео

Регистрация Запомнить меня
Войти через:  Facebook Google Twitter Vk Yandex Mail.ru

Devin Townsend - Regulator - текст песни, таба, видео

Печатать
Просмотров: 137
-------------------------------------------------------------------------------
                             REGULATOR - Devin Townsend
-------------------------------------------------------------------------------
Tabbed by: Justin R
E-mail: sdjustinr@gmail.com

Tuning: C G C G C C

Notes: a period below a power chord = palm mute

    |        |        |        |
C|---------------------------------------|
C|---------------------------------------|
G|---------------------------------------|
C|--0----0-0-0----0-0-0----0-0-0----0-0--|
G|--0----0-0-0----0-0-0----0-0-0----0-0--|
C|--0----0-0-0----0-0-0----0-0-0----0-0--|
         . .      . .      . .      . .

    |    |     |      |      |    |     |      |      |    |     |      |
C|------------------------|------------------------|--------------------------|
C|------------------------|------------------------|--------------------------|
G|------------------------|------------------------|--------------------------|
C|--0--5h6--0--7--12--10--|--0--5h6--0--7--12--10--|--0--5h6--0--7--12--10----|
G|--0--5h6--0--7--12--10--|--0--5h6--0--7--12--10--|--0--5h6--0--7--12--10----|
C|--0--5h6--0--7--12--10--|--0--5h6--0--7--12--10--|--0--5h6--0--7--12--10----|
            .                        .                        .

    |   |    |   |
C|--0-0-0-0--0-0-0-0------||
C|--0-0-0-0--0-0-0-0-----.||
G|--0-0-0-0--0-0-0-0------||
C|--3-3-3-3--8-8-8-8------||
G|--3-3-3-3--8-8-8-8-----.||
C|--3-3-3-3--8-8-8-8------||


    |         |          |          |           |         |          |          |       
C|------------------------------------------|--------------------------------------------|
C|------------------------------------------|--------------------------------------------|
G|------------------------------------------|--------------------------------------------|
C|--6h7--0--3h5--0--6h7--0--3h5--0--6-7-8---|---6h7--0--3h5--0--6h7--0--3h5--0--8-7-5----|
G|--6h7--0--3h5--0--6h7--0--3h5--0--6-7-8---|---6h7--0--3h5--0--6h7--0--3h5--0--8-7-5----|
C|--6h7--0--3h5--0--6h7--0--3h5--0--6-7-8---|---6h7--0--3h5--0--6h7--0--3h5--0--8-7-5----|
         .       .       .       .                   .       .       .       . 

    |         |          |          |           |         |          |         |
C|------------------------------------------|----------------------------------------------||
C|------------------------------------------|----------------------------------------------||
G|------------------------------------------|----------------------------------------------||
C|--6h7--0--3h5--0--6h7--0--3h5--0--6-7-8---|---6h7--0--3h5--0--6h7--0----0-0--0----0-0----||
G|--6h7--0--3h5--0--6h7--0--3h5--0--6-7-8---|---6h7--0--3h5--0--6h7--0----0-0--0----0-0----||
C|--6h7--0--3h5--0--6h7--0--3h5--0--6-7-8---|---6h7--0--3h5--0--6h7--0----0-0--0----0-0----||
         .       .       .       .                   .       .            . .       . .



    |     |     |     |     |     |     |     |
C|-------------------------------------------------------|
C|-------------------------------------------------------|
G|-------------------------------------------------------|
C|--0-0---0-0---0-0---0-0---0-0---0-0---0-0---0-0-12-----|
G|--0-0---0-0---0-0---0-0---0-0---0-0---0-0---0-0-12-----|
C|--0-0---0-0---0-0---0-0---0-0---0-0---0-0---0-0-12-----|


    |     |     |     |     |     |     |     |
C|-------------------------------------------------------||
C|-------------------------------------------------------||
G|-------------------------------------------------------||
C|--0-0---0-0---0-0---0-0---0-0---0-0---0-0---0-0--------||
G|--0-0---0-0---0-0---0-0---0-0---0-0---0-0---0-0--------||
C|--0-0---0-0---0-0---0-0---0-0---0-0---0-0---0-0-12\----||



        Verse(s): 

    |     |     |     |
C|---------------------------------------------------------------------------|
C|---------------------------------------------------------------------------|
G|---------------------------------------------------------------------------|
C|--0-0---0-0---0-0---0-0----------------------------------------------------|
G|--0-0---0-0---0-0---0-0---etcetera, etcetera..-----------------------------|
C|--0-0---0-0---0-0---0-0----------------------------------------------------|
    . .   . .   . .   . .
       "I'm regulated.."
   
     |       |       |       |       |       |       |       |   
C|---------------------------------------------------------------------------|
C|---------------------------------------------------------------------------|
G|---------------------------------------------------------------------------|
C|---0-2---0-2---0-2---0-2---0-2---0-2---0-2---0-2---0-2---0-2---0-2---------|
G|---0-2---0-2---0-2---0-2---0-2---0-2---0-2---0-2---0-2---0-2---0-2---------|
C|---0-2---0-2---0-2---0-2---0-2---0-2---0-2---0-2---0-2---0-2---0-2---------|
     .     .     .     .     .     .     .     .     .     .     .

       " Odd times and all.."

        Chorus:

    |       |        |           |              |       |        |           |
C|--0-0-0-0-0-0-0-0--0--0--0--0--0--0--0--0---|-0-0-0-0-0-0-0-0--0--0--0--0--0--0--0-----------||
C|--0-0-0-0-0-0-0-0--0--0--0--0--0--0--0--0---|-0-0-0-0-0-0-0-0--0--0--0--0--0--0--0----------.||
G|--0-0-0-0-0-0-0-0--0--0--0--0--0--0--0--0---|-0-0-0-0-0-0-0-0--0--0--0--0--0--0--0-----------||
C|--0-0-0-0-0-0-0-0--10-10-10-10-10-10-10-10--|-0-0-0-0-0-0-0-0--10-10-10-10-10-10-10--3--2----||
G|--0-0-0-0-0-0-0-0--8--8--8--8--8--8--8--8---|-0-0-0-0-0-0-0-0--8--8--8--8--8--8--8---3--2---.||
C|--0-0-0-0-0-0-0-0--8--8--8--8--8--8--8--8---|-0-0-0-0-0-0-0-0--8--8--8--8--8--8--8---3--2----||
                                                                                       .  .

      "I'm regulated. No meantime at all."
        

        
        Instrumental:

    |       |       |       |         |       |       |       |
C|------------------------------------------------------------------------|
C|------------------------------------------------------------------------|
G|--5-5-7-7-5-5-5-9-9-9-9-7-7-7-7-7---5-5-7-7-5-5-5-6-6-6-6-8-8-8-8-8-----|
C|------------------------------------------------------------------------|
G|--5-5-7-7-5-5-5-9-9-9-9-7-7-7-7-7---5-5-7-7-5-5-5-6-6-6-6-8-8-8-8-8-----|
C|------------------------------------------------------------------------|

    |       |       |        |        |       |       |       | 
C|------------------------------------------------------------------------||
C|------------------------------------------------------------------------||
G|--5-5-7-7-5-5-5-9-9-9-12-7-7-7-7-7--5-5-7-7-5-5-5-6-6-6-6-8-8-8-8-8-----||
C|------------------------------------------------------------------------||
G|--5-5-7-7-5-5-5-9-9-9-12-7-7-7-7-7--5-5-7-7-5-5-5-6-6-6-6-8-8-8-8-8-----||
C|------------------------------------------------------------------------||



     |       |       |       |       |       |       |        |   
C|------------------------------------------------------0-0-0-0-0-0-0---|
C|------------------------------------------------------0-0-0-0-0-0-0---|
G|------------------------------------------------------4-4-4-4-4-4-4---|
C|---0-2---0-2---0-2---0-2---0-2---0-2---0-2---0-2---0------------------|
G|---0-2---0-2---0-2---0-2---0-2---0-2---0-2---0-2---0------------------|
C|---0-2---0-2---0-2---0-2---0-2---0-2---0-2---0-2---0------------------|
     .     .     .     .     .     .     .     .     .  . . . . . . .

    "I......."


************************************

| /   slide up
| \   slide down
| h   hammer-on
| p   pull-off
| ~   vibrato
| +   harmonic
| x   Mute note
| b   Bend
| pb  Pre-bend
| br  Bend release
| pbr Pre-bend release
| brb Bend release bend

************************************
Добавлено: 05.07.2015
Другие материалы по этой песне:

Страница создана 24.03.2012
http://primanota.ru/devin-townsend/regulator-chords.htm
Привет, Гость.
Предлагаем пройти революционный курс по гитаре.
Подарок от PrimaNota.Ru, забирай!