PrimaNota.ru - самый крупный в мире бесплатный архив песенных текстов, аккордов, табулатур и нот


Devin Townsend - Hide Nowhere - текст песни, таба, видео

Регистрация Запомнить меня
Войти через:  Facebook Google Twitter Vk Yandex Mail.ru

Devin Townsend - Hide Nowhere - текст песни, таба, видео

Печатать
Просмотров: 122
Tuning (low to high): CGCGCE
Riff A                     Riff B
------------------------|--------------------------------------|--------|
------------------------|--------------------------------------|--------|
------------------------|--------------------------------------|--------|
------------------------|--------------------------------------|--------|
0--0--4--4--2--2--6--6--|--0--0--0--0--0--0--0--0--0--0--0--0--|--------|
0--0--4--4--2--2--6--6--|--0--0--0--0--0--0--0--0--0--0--0--0--|--------|


Riff C                           Riff D
------------------------------|--------------|--------------------------|
------------------------------|--------------|--------------------------|
------------------------------|--------------|--------------------------|
------------------------------|--------------|--------------------------|
0--0--4--4--3--3--3--6--6--6--|--0--4--2--6--|--------------------------|
0--0--4--4--3--3--3--6--6--6--|--0--4--2--6--|--------------------------|


Riff E                             Riff F
--------------------------------|-----------|---------------------------|
--------------------------------|-----------|---------------------------|
--------------------------------|-----------|---------------------------|
--------------------------------|-----------|---------------------------|
9--9--9--9--11--9--9--11--9--9--|--0--6--7--|---------------------------|
9--9--9--9--11--9--9--11--9--9--|--0--6--7--|---------------------------|


Chorus 1
------------------------------------------------------------|-----------|
------------------------------------------------------------|-----------|
------------------------------------------------------------|-----------|
------------------------------------------------------------|-----------|
0--0--0--0--0--0--0--0--0--0--4--4--4--4--4--4--4--4--4--4--|-----------|
0--0--0--0--0--0--0--0--0--0--4--4--4--4--4--4--4--4--4--4--|-----------|


Chorus 2                         Chorus 3
------------------------------|--------------------------------|--------|
------------------------------|--------------------------------|--------|
------------------------------|--------------------------------|--------|
------------------------------|--------------------------------|--------|
3--3--3--3--3--3--3--3--3--3--|--5--5--5--5--5--5--5--5--5--5--|--------|
3--3--3--3--3--3--3--3--3--3--|--5--5--5--5--5--5--5--5--5--5--|--------|


Chorus 4                   Riff G
------------------------|-----------|-----------------------------------|
------------------------|-----------|-----------------------------------|
------------------------|-----------|-----------------------------------|
------------------------|-----------|-----------------------------------|
5--5--5--5--6--6--6--6--|--3--1--0--|-----------------------------------|
5--5--5--5--6--6--6--6--|--3--1--0--|-----------------------------------|


Harmonize 1
------------------------------------------------------------|-----------|
------------------------------------------------------------|-----------|
------------------------------------------------------------|-----------|
------------------------------------------------------------|-----------|
4--4--4--4--4--4--4--4--4--4--4--4--4--4--4--4--4--4--4--4--|-----------|
4--4--4--4--4--4--4--4--4--4--4--4--4--4--4--4--4--4--4--4--|-----------|


Harmonize 2
--------------------------------------------------|---------------------|
--------------------------------------------------|---------------------|
--------------------------------------------------|---------------------|
--------------------------------------------------|---------------------|
3--3--3--3--3--3--3--3--3--3--3--5--0--0--12--12--|---------------------|
3--3--3--3--3--3--3--3--3--3--3--5--0--0--12--12--|---------------------|


Harmonize 3
------------------------------|-----------------------------------------|
------------------------------|-----------------------------------------|
------------------------------|-----------------------------------------|
------------------------------|-----------------------------------------|
4--4--4--4--4--4--4--4--4--4--|-----------------------------------------|
4--4--4--4--4--4--4--4--4--4--|-----------------------------------------|


Harmonize 4
--------------------------------------|---------------------------------|
--------------------------------------|---------------------------------|
--------------------------------------|---------------------------------|
--------------------------------------|---------------------------------|
3--3--3--3--3--3--3--5--0--0--12--12--|---------------------------------|
3--3--3--3--3--3--3--5--0--0--12--12--|---------------------------------|


Harmonize 5
---------------------------------------|--------------------------------|
---------------------------------------|--------------------------------|
---------------------------------------|--------------------------------|
---------------------------------------|--------------------------------|
3--3--3--3--3--3--3--3--3--3--3--5--0--|--------------------------------|
3--3--3--3--3--3--3--3--3--3--3--5--0--|--------------------------------|


Riff H                              Riff I
---------------------------------|--------------------------------|-----|
---------------------------------|--------------------------------|-----|
---------------------------------|--------------------------------|-----|
---------------------------------|--------------------------------|-----|
---------------------------------|--0--0--0--0--6--6--6--7--7--7--|-----|
0--0--0--0--0--6--6--6--7--7--7--|--0--0--0--0--6--6--6--7--7--7--|-----|


Riff J   Riff K                                 Riff L
------|--------------------------------------|--------------------|-----|
------|--------------------------------------|--------------------|-----|
------|--------------------------------------|--------------------|-----|
------|--------------------------------------|--------------------|-----|
3--1--|--1--1--1--1--1--1--1--1--1--1--1--1--|--4--2--0--4--2--0--|-----|
3--1--|--1--1--1--1--1--1--1--1--1--1--1--1--|--4--2--0--4--2--0--|-----|


End Ri
---|--------------------------------------------------------------------|
---|--------------------------------------------------------------------|
---|--------------------------------------------------------------------|
---|--------------------------------------------------------------------|
0--|--------------------------------------------------------------------|
0--|--------------------------------------------------------------------|
Добавлено: 27.06.2013
Другие материалы по этой песне:
  • Аккорды и текст

Страница создана 06.03.2012
http://primanota.ru/devin-townsend/hide-nowhere-chords.htm
Привет, Гость.
Предлагаем пройти революционный курс по гитаре.
Подарок от PrimaNota.Ru, забирай!