PrimaNota.ru - самый крупный в мире бесплатный архив песенных текстов, аккордов, табулатур и нот


Devin Townsend - Casualties Of Cool (album) - таба, видео

Регистрация Запомнить меня
Войти через:  Facebook Google Twitter Vk Yandex Mail.ru

Devin Townsend - Casualties Of Cool (album) - таба, видео

Печатать
Просмотров: 153
-------------------------------------------------------------------------------
                             Casualties of Cool album - Band Name
-------------------------------------------------------------------------------
Tabbed by: milesak
E-mail: MilesAK@Hotmail.co.uk

Tuning: Open C (CGCGCe)

This album doesn't have that many guitar parts. It's a very ambient album; atmospheric. All the guitar
parts I can figure out is here. Just thought it'd be cool for the Dev fans who want to play any song on the 
album. It might not be exactly as Dev plays it, but sounds correct when played with the song.

1. Daddy:

This just has two simple riffs playing throughout the song. The chorus has something differently playing in
the background, but I couldn't figure it out through the noise over the top of it.

            f                   
e|---------------------------------------------------------------------------|
C|------4-2------------------------------------------------------------------|
G|--2h4-----2-2-4-2----------------------------------------------------------|
C|---------------------------------------------------------------------------|
G|---------------------------------------------------------------------------|
C|---------------------------------------------------------------------------|

e|--------------3-2----------------------------------------------------------|
C|--4-----4---------4--------------------------------------------------------|
G|----2-4---2-4--------------------------------------------------------------|
C|---------------------------------------------------------------------------|
G|---------------------------------------------------------------------------|
C|---------------------------------------------------------------------------|

2. Mountaintop:

The lead riffs on this are played on bass and keyboard, but there are again, two incredibly easy riffs
playing in the background.

   x x x  x xx x    x x x  x xx x
e|---------------------------------------------------------------------------|
C|---------------------------------------------------------------------------|
G|---------------------------------------------------------------------------|
C|-0-0-0--0-00-0-0--0-0-0--0-00-0-0------------------------------------------|
G|---------------------------------------------------------------------------|
C|---------------------------------------------------------------------------|
   x x x  x xx x x  x x x  x xx x x
e|---------------------------------------------------------------------------|
C|---------------------------------------------------------------------------|
G|---------------------------------------------------------------------------|
C|-5-5-5--5-55-5-5--5-5-5--5-55-5-5------------------------------------------|
G|---------------------------------------------------------------------------|
C|---------------------------------------------------------------------------|

3. Flight:

Simple song of two riffs! Like the others!

e|-5-55-4--5-55-4--5-55-4--7-77-4--5-55-4--5-55-4--5-55-4--7-77-4------------|
G|---------------------------------------------------------------------------|
C|---------------------------------------------------------------------------|
G|---------------------------------------------------------------------------|
C|---------------------------------------------------------------------------|
G|---------------------------------------------------------------------------|

e|-7----5------4-----4-----4-------------------------------------------------|
C|---------------------------------------------------------------------------|
G|---------------------------------------------------------------------------|
C|---------------------------------------------------------------------------|
G|---------------------------------------------------------------------------|
C|---------------------------------------------------------------------------|

4. The Code:

Intro:
          x x   x x         x x   x x
e|---------------------------------------------------------------------------|
C|---------------------------------------------------------------------------|
G|---------------------------------------------------------------------------|
C|--2-4-4-----4-----4-2-4-4-----4--------------------------------------------|
G|--------2h4---2h4---------2h4---2h4----------------------------------------|
C|---------------------------------------------------------------------------|


e|---------------------------------------------------------------------------|
C|-8----6------------6-------------------------------------------------------|
G|----9---9----6h7h9---9-----------------------------------------------------|
C|---------------------------------------------------------------------------|
G|---------------------------------------------------------------------------|
C|---------------------------------------------------------------------------|

Chorus:

e|---------------------------------------------------------------------------|
C|---------------------------------------------------------------------------|
G|-4---4----7-7-7-7-9-4-------------4----------------------------------------|
C|--------------------------4-4-4-4------------------------------------------|
G|-4-4-4----7-7-7-7-9-4-----4-4-4-4-4----------------------------------------|
C|---------------------------------------------------------------------------|

Verse?:

e|---------------------------------------------------------------------------|
C|---------------------------------------------------------------------------|
G|-6---6---------6-----------------------------------------------------------|
C|---------------------------------------------------------------------------|
G|-6-6-6---------6-----------------------------------------------------------|
C|---------9-8-6-------------------------------------------------------------|

Bridge:
In this part, he plays multiple riffs with no real repeated patterns. Listen out and you should hear these 
parts...

e|---------------------------------------------------------------------------|
C|---------------------------------------------------------------------------|
G|-8-8--8--8-8-8---------------------------9-----9---------------------------|
C|---------------etc...---6/8\4-----4/6--------------------------------------|
G|-8-8--8--8-8-8---------------------------9--9--9---------------------------|
C|---------------------------------------------------------------------------|

Solo:

e|---------------------------------------------------15b---------12---------------------------|
C|----10b~--7-------------------------------------16----------14------------------------------|
G|---8--------9~-----21\------------------------12-------------------16-14-16-14-12-----------|
C|--8---------------------------------13h14h15-------------------------------------16~--------|
G|-8-------------------------12h13h15---------------------------------------------------------|
C|--------------------------------------------------------------------------------------------|

e|--15h17~-------------------------------------------------------------------|
C|----------------------------14b--------------------------------------------|
G|------------14-12~----12------------------7-9-7----------------------------|
C|----------------------12-------------9/11-------11-10----------------------|
G|---------------------------------------------------------------------------|
C|---------------------------------------------------------------------------|

Moon:

Intro/Verse:
   x x   x x x   x x  x x          x x
e|---------------------------------------------------------------------------|
C|---------------------------------------------------------------------------|
G|-----------------------------------------------4b--------------------------|
C|-----4-------2----------4--6-7-4------etc....------------------------------|
G|-2h4---2-2h4---2h4--2-4----------2h4---------------------------------------|
C|---------------------------------------------------------------------------|

Really not so sure on the chorus so I won't write anything. I think he's an arpeggio of E.

Solo:

e|----------------------------------------------------------------------------------|
C|--------------------14~----13~----------------------------------------------------|
G|-------12--12b---16-----16-------12---14~--12-14-16~----------14-16~--------------|
C|-12h14--------------------------------------------------14/16---------16-14-16----|
G|----------------------------------------------------------------------------------|
C|----------------------------------------------------------------------------------|

e|---------------------------------------------------------------------------------------------------12-|
C|------------------------------------------------------------------------------------------------------|
G|------------------------------------------12-14-14b--------------10/12b-------------------12--10h12---|
C|-14-14-13b--------16/18/19/18----14/16-16------------16-16-16--16-------14-14-14-14-14/16-------------|
G|------------14/16-------------------------------------------------------------------------------------|
C|------------------------------------------------------------------------------------------------------|

(The bit when Che comes in)

e|-0-7-----0-7-----0-7-----0-7-----------------------------------------------|
C|-----7-6-----7-6-----7-6-----7-6-------------------------------------------|
G|---------------------------------------------------------------------------|
C|---------------------------------------------------------------------------|
G|---------------------------------------------------------------------------|
C|---------------------------------------------------------------------------|

Pier: No guitar part...

Ether:

Verse:
      x  x     x    x  x     x
e|-11------------11----------------------------------------------------------|
C|----------10------------10-------------------------------------------------|
G|----11-11----8----11-11----8-----------------------------------------------|
C|---------------------------------------------------------------------------|
G|---------------------------------------------------------------------------|
C|---------------------------------------------------------------------------|

Hejda: No guitar part...

Forgive Me:

Intro:

e|----------------8-------------------------------------------------------------|
C|------------------7b----------------------------------------------------------|
G|-2/3-2-0--------------8-7pb\5\3----5\3/5---3~0----7~----3~0-------------------|
C|-2/3-2-0-3b---------------------------------------------------3p0-------------|
G|---------3b-------------------------------------------------------3p0---------|
C|----------------------------------------------------------------------3p0-----|

Verse:

e|------------------------------------------------------------------------------|
C|--------3-0------------------3-0------------------3-0-0-5pbp3-0---------------|
G|--3-5-0-----3p0--------3-5-0-----3p0--------3-5-0-----------------------------|
C|----------------3p0------------------3p0--------------------------------------|
G|------------------------------------------------------------------------------|
C|------------------------------------------------------------------------------|

Bridge:

e|---------------------------------------------------------------------------|
C|---------------------------------------------------------------------------|
G|-3-0----7~----3~0----------------------------------------------------------|
C|-------------------3p0-----0-----------------------------------------------|
G|-----------------------3p0-------------------------------------------------|
C|---------------------------------------------------------------------------|

Chorus:

e|---------------------------------------------------------------------------|
C|-------5---5---5-------5---5---5-------------------------------------------|
G|-----5---5---5-------5---5---5---------------------------------------------|
C|---5---------------5-------------------------------------------------------|
G|-5---------------5---------------------------------------------------------|
C|---------------------------------------------------------------------------|

Broken: Sorry about this one, I've honestly no idea. I'll try and tab it some time in the future when I 
have more time.

Bones:

Verse:

e|---------------------------------------------------------------------------|
C|---------------------------------------------------------------------------|
G|-3-5-7-8----10-8-10---8-5-8----5-7-8-----8\7\5-3-5-------------------------|
C|---------------------------------------------------------------------------|
G|---------------------------------------------------------------------------|
C|---------------------------------------------------------------------------|

Deathscope: Really running low on time right now and I desperately want to get this tab out there. This song
however is so messed up that all I got is this wee bit of verse.

e|---0-0---------0-0---------------------------------------------------------|
C|---0-0---------0-0---------------------------------------------------------|
G|---------------------------------------------------------------------------|
C|-0-----0-0-7-0-----0-0-7---------------------------------------------------|
G|---------------------------------------------------------------------------|
C|---------------------------------------------------------------------------|

The Field:

Verse:

e|---0-0---0-0---0-0---0-0---------------------------------------------------|
C|---0-0---0-0---0-0---0-0---------------------------------------------------|
G|---------------------------------------------------------------------------|
C|---------------------------------------------------------------------------|
G|---------------------------------------------------------------------------|
C|-9-----4-----9-----4-------------------------------------------------------|

Solo:

e|-------------------------------------------------------------------------------------|
C|-------------------------------------------------------------------------------------|
G|-------------------------------------------------------------------------------------|
C|-------12-14b-12--14b---------14~12------------12-13-14----12h14----12/14--12--------|
G|-12/14------------------12/14--------14--13-14--------------------------------13-14--|
C|-------------------------------------------------------------------------------------|

The Bridge:

Chorus:

e|---------------------------------------------------------------------------|
C|---------------------------------------------------------------------------|
G|---------------------------------------------------------------------------|
C|-5-7-7-7-7-5-7-9-7-7-7-7-7-7-7-7-4-7-7-7-7-7-4-2-4-------------------------|
G|-5-5-5-5-5-5-5-5-5-5-5-5-5-5-5-5-4-4-4-4-4-4-4-2-4-------------------------|
C|-5-5-5-5-5-5-5-5-5-5-5-5-5-5-5-5-------------------------------------------|

For the other part in the song it just sounds like he's playing open strings.

Pure: No guitar part...




So, that's it. I hope this helps some people and I apologise for the bits that are left out. I will add to it
if possible. Thank you for taking the time to look at my tab, any rate or comment is very much appreciated.

-Milesak


************************************

| /   slide up
| \   slide down
| h   hammer-on
| p   pull-off
| ~   vibrato
| +   harmonic
| x   Mute note
| b   Bend
| pb  Pre-bend
| br  Bend release
| pbr Pre-bend release
| brb Bend release bend
| f   Fret hand mute

************************************
Добавлено: 05.07.2015
Другие материалы по этой песне:
  • Аккорды и текст

Страница создана 05.07.2015
http://primanota.ru/devin-townsend/casualties-of-cool-album-chords.htm
Привет, Гость.
Предлагаем пройти революционный курс по гитаре.
Подарок от PrimaNota.Ru, забирай!