PrimaNota.ru - самый крупный в мире бесплатный архив песенных текстов, аккордов, табулатур и нот


Devin Townsend Project - Save Our Now - таба, видео

Регистрация Запомнить меня
Войти через:  Facebook Google Twitter Vk Yandex Mail.ru

Devin Townsend Project - Save Our Now - таба, видео

Печатать
Просмотров: 109
-------------------------------------------------------------------------------
                             Save Our Now - Devin Townsend
-------------------------------------------------------------------------------
Tabbed by: Cedar redaC
E-mail: Clar8021@gmail.com

Tuning:EADGBe (It's not originally in standard tuning, but this version fits
the album version quite nicely.)

The song starts with a guitar and keyboard vamping at the end of
"Where We Belong". I'll be starting from when the track starts on the album.
Intro
e|-(vamp)----------|---------------------------------------------------------|
B|---(eighth notes)|-------------(eighth notes for four measures)------------|
G|-----------------|---/14---------------------------------------------------|
D|---7-------------|---------------------------------------------------------|
A|---7-------------|---/12---------------------------------------------------|
E|---5-------------|---------------------------------------------------------|

Chorus progression 1
e|-------------|-------------|----------|------------------------------------|
B|-------------|-------------|----------|------------------------------------|
G|-------------|-------------|----5-----|------------------------------------|
D|-----7-------|---3---------|----5-----|------5-----------------------------|
A|-----7-------|---3---------|----3-----|------5-----------------------------|
E|-----5-------|---1---------|----------|------3-----------------------------|

Chorus progression 2
e|-------------|-----------|-------------|-----------------------------------|
B|-------------|-----------|-------------|-----------------------------------|
G|-------------|-----------|-------5-----|----4------------------------------|
D|------7------|----3------|-------5-----|----5------------------------------|
A|------7------|----3------|-------3-----|----2------------------------------|
E|------5------|----1------|-------------|-----------------------------------|

Verse Riff (You're going to be repeating this one a lot.)
e|-----------------------------|---------------------------------------------|
B|(these are all eighth notes)-|-----(repeat)--------------------------------|
G|-----------------------------|---------------------------------------------|
D|--14-10----10-12-10----------|---------------------------------------------|
A|--------12----------12-10----|---------------------------------------------|
E|-----------------------------|---------------------------------------------|

Chorus Progression 3 (doubling the "Happy Nooooooow" line  in the chorus.)
e|---------------------------------------------------------------------------|
B|---------------------------------------------------------------------------|
G|---------------------------------------------------------------------------|
D|---------------------------------------------------------------------------|
A|----0---2-3----5--2-3----0--2----------------------------------------------|
E|--------------------------------3------------------------------------------|

Chorus Progression 4 (Save Our, Save Our, Save Our Now)
e|---------------------------------------------------------------------------|
B|---------------------------------------------------------------------------|
G|---------------------------------------------------------------------------|
D|---------------------------------------------------------------------------|
A|----0----2--3---5----7-----3-----5-----------------------------------------|
E|---------------------------------------------------------------------------|

After the Second Chorus, the chords played by the keyboard are:

Am, F, C9, G

______________
Song Structure

Vamp
Intro x1
Chorus Progression 1 x1
Chorus Progression 2 x1
Verse Riff x32 (it's a wrist killer at first, but you get used to it.)
Chorus Progression 1 x1
Chorus Progression 2 x1
Chorus Progression 3 x1
Chorus Progression 4 x1
Verse Riff x32
Chorus Progression 1 x1
Chorus Progression 2 x1
Chorus Progression 3 x1
Chorus Progression 4 x1
Ending Chords

Thanks for reading my TAB. I hope you found it useful in figuring out this song.
************************************

| /   slide up
| \   slide down
| h   hammer-on
| p   pull-off
| ~   vibrato
| +   harmonic
| x   Mute note
| b   Bend
| pb  Pre-bend
| br  Bend release
| pbr Pre-bend release
| brb Bend release bend

************************************
Добавлено: 19.06.2013
Другие материалы по этой песне:

Страница создана 19.06.2013
http://primanota.ru/devin-townsend-project/save-our-now-chords.htm
Привет, Гость.
Предлагаем пройти революционный курс по гитаре.
Подарок от PrimaNota.Ru, забирай!