PrimaNota.ru - самый крупный в мире бесплатный архив песенных текстов, аккордов, табулатур и нот


Devin Townsend Project - Kingdom - таба, видео

Регистрация Запомнить меня
Войти через:  Facebook Google Twitter Vk Yandex Mail.ru

Devin Townsend Project - Kingdom - таба, видео

Печатать
Просмотров: 125
Artist     : The Devin Townsend Project
Song Title : Kingdom
Album Title: Epicloud



Open C Arrangement
Tabbed by Duke_Lukem

Key
M  - Palm Mute
X  - Dead Note
*  - Sustaine
PH - Pinched Harmonic


Intro Section A

E|-------------------------------|-------------------------------|
C|-------------------------------|-------------------------------|
G|-------------------------------|-------------------------------|
C|-----------------------------5*|*******************************|
G|-----------------------------5*|*******************************|
C|-5-5-5-5-5-5-5-5-9-9-9-9-9-9-5*|*******************************|
                                                                      X4
E|-------------------------------|-------------------------------|
C|-------------------------------|-------------------------------|
G|-------------------------------|-------------------------------|
C|-----------------------------4*|*******************************|
G|-----------------------------5*|*******************************|
C|-5-5-5-5-5-5-5-5-9-9-9-9-9-9-5*|*******************************|


Intro Section B

E|-------------------------------|-------------------------------|
C|-------------------------------|-------------------------------|
G|-------------------------------|-------------------------------|
C|-----5-----------5-----------5*|********---------5-----------5-|
G|-5---5---5---5---5---5---5---5*|********-5---5---5---5---5---5-|
C|-5---5---5---5---5---5---5---5*|********-5---5---5---5---5---5-|
   M       M   M       M   M               M   M       M   M
                                                                      X2
E|-------------------------------|-------------------------------|
C|-------------------------------|-------------------------------|
G|-------------------------------|-------------------------------|
C|-----5-----------5-----------4*|********---------4-----------4-|
G|-5---5---5---5---5---5---5---5*|********-5---5---5---5---5---5-|
C|-5---5---5---5---5---5---5---5*|********-5---5---5---5---5---5-|
   M       M   M       M   M               M   M       M   M


Intro Section C

E|-------------------------------|-------------------------------|
C|-------------------------------|-------------------------------|
G|-------------------------------|-------------------------------|
C|-----------------------------5*|********---------5-----------5-|
G|-----------------------------5*|********-5---5---5---5---5---5-|
C|-5-5-5-5-5-5-5-5-9-9-9-9-9-9-5*|********-5---5---5---5---5---5-|
                                           M   M       M   M
                                                                      X2
E|-------------------------------|-------------------------------|
C|-------------------------------|-------------------------------|
G|-------------------------------|-------------------------------|
C|-----------------------------4*|********---------4-----------4-|
G|-----------------------------5*|********-5---5---5---5---5---5-|
C|-5-5-5-5-5-5-5-5-9-9-9-9-9-9-5*|********-5---5---5---5---5---5-|
                                           M   M       M   M

Verse Section A

E|-------------------------------|-------------------------------|
C|-------------------------------|-------------------------------|
G|-------------------------------|-------------------------------|
C|-------------------------------|-------------------------------|
G|-------------------------------|-------------------------------|
C|-5-5-5-5-5-5-5-5-5-------------|-------------------------------|

E|-------------------------------|-------------------------------|
C|-------------------------------|-------------------------------|
G|-------------------------------|-------------------------------|
C|-------------------------------|-------------------------------|
G|-------------------------------|-------------------------------|
C|-5-5-5-5-5-5-5-5-5-------------|-----5-5-----------------------|
                                                                      X2
E|-------------------------------|-------------------------------|
C|-------------------------------|-------------------------------|
G|-------------------------------|-------------------------------|
C|-------------------------------|-------------------------------|
G|-------------------------------|-------------------------------|
C|-5-5-5-5-5-5-5-5-5-------------|-------------------------------|

E|-------------------------------|-------------------------------|
C|-------------------------------|-------------------------------|
G|-------------------------------|-------------------------------|
C|-------------------------------|-------------------------------|
G|-------------------------------|-------------------------------|
C|-5-5-5-5-5-5-5-5-5-------------|-----5-5-------------5-5-5-5---|


Verse Section B

E|-------------------------------|-------------------------------|
C|-------------------------------|-------------------------------|
G|-------------------------------|-------------------------------|
C|-----------------------------5*|********---------5-----------5-|
G|-----------------------------5*|********-5---5---5---5---5---5-|
C|-5-5-5-5-5-5-5-5-9-9-9-9-9-9-5*|********-5---5---5---5---5---5-|
                                           M   M       M   M
                                                                      X2
E|-------------------------------|-------------------------------|
C|-------------------------------|-------------------------------|
G|-------------------------------|-------------------------------|
C|-----------------------------4*|********---------4-----------4-|
G|-----------------------------5*|********-5---5---5---5---5---5-|
C|-5-5-5-5-5-5-5-5-9-9-9-9-9-9-5*|********-5---5---5---5---5---5-|
                                           M   M       M   M

Verse Section C

E|-------------------------------|-------------------------------|
C|-------------------------------|-------------------------------|
G|-------------------------------|-------------------------------|
C|-------------------------------|-------------------------------|
G|-------------------------------|-------------------------------|
C|-5-5-5-5-5-5-5-5-5-------------|-------------------------------|

E|-------------------------------|-------------------------------|
C|-------------------------------|-------------------------------|
G|-------------------------------|-------------------------------|
C|-------------------------------|-------------------------------|
G|-------------------------------|-------------------------------|
C|-5-5-5-5-5-5-5-5-5-------------|-----5-5-----------------------|
                                                                      X2
E|-------------------------------|-------------------------------|
C|-------------------------------|-------------------------------|
G|-------------------------------|-------------------------------|
C|-------------------------------|-------------------------------|
G|-------------------------------|-------------------------------|
C|-5-5-5-5-5-5-5-5-5-------------|-------------------------------|

E|-------------------------------|-------------------------------|
C|-------------------------------|-------------------------------|
G|-------------------------------|-------------------------------|
C|-------------------------------|-------------------------------|
G|-------------------------------|-------------------------------|
C|-5-5-5-5-5-5-5-5-5-------------|-----5-5-------------5-5-5-5---|


Verse Section D

E|-------------------------------|-------------------------------|
C|-------------------------------|-------------------------------|
G|-------------------------------|-------------------------------|
C|-----------------------------5*|********---------5-----------5-|
G|-----------------------------5*|********-5---5---5---5---5---5-|
C|-5-5-5-5-5-5-5-5-9-9-9-9-9-9-5*|********-5---5---5---5---5---5-|
                                           M   M       M   M
                                                                      X2
E|-------------------------------|-------------------------------|
C|-------------------------------|-------------------------------|
G|-------------------------------|-------------------------------|
C|-----------------------------4*|********---------4-----------4-|
G|-----------------------------5*|********-5---5---5---5---5---5-|
C|-5-5-5-5-5-5-5-5-9-9-9-9-9-9-5*|********-5---5---5---5---5---5-|
                                           M   M       M   M

Pre Chorus Section A

E|-----------------------------|----------------------------|
C|-----------------------------|----------------------------|
G|-----------------------------|----------------------------|
C|-1------1------1------1------|-1------1------1--1--1--1-1-|
G|-1------1------1------1------|-1------1------1--1--1--1-1-|
C|-1--1-1-1--1-1-1--1-1-1--1-1-|-1--1-1-1--1-1-1--1--1--1-1-|
      M M    M M    M M    M M      M M    M M


Pre Chorus Section B

E|-----------------------------|----------------------------|
C|-----------------------------|----------------------------|
G|-----------------------------|----------------------------|
C|-----------------------------|----------------------------|
G|-3------3------3------3------|-3------3------3--3--3--3-3-|
C|-5--5-5-5--5-5-5--5-5-5--5-5-|-5--5-5-5--5-5-5--5--5--5-5-|
      M M    M M    M M    M M      M M    M M


Pre Chorus Section C

E|-----------------------------|----------------------------|
C|-----------------------------|----------------------------|
G|-----------------------------|----------------------------|
C|-1------1------1------1------|-1------1------1--1--1--1-1-|
G|-1------1------1------1------|-1------1------1--1--1--1-1-|
C|-1--1-1-1--1-1-1--1-1-1--1-1-|-1--1-1-1--1-1-1--1--1--1-1-|
      M M    M M    M M    M M      M M    M M


Pre Chorus Section D

E|-----------------------------|----------------------------|
C|-----------------------------|----------------------------|
G|-----------------------------|----------------------------|
C|-----------------------------|----------------------------|
G|-3------3------3------3------|-3------3------3--3--3--3-3-|
C|-5--5-5-5--5-5-5--5-5-5--5-5-|-5--5-5-5--5-5-5--5--5--5-5-|
      M M    M M    M M    M M      M M    M M


Chorus

E|-----------------|-----------------|-----------------|-----------------|
C|-----------------|-----------------|-----------------|-----------------|
G|-----------------|-----------------|-----------------|-----------------|
C|-5-5-5-5-5-5-5-5-|-5-5-5-5-5-5-5-5-|-5-5-5-5-5-5-5-5-|-7-7-7-7-4-4-4-4-|
G|-5-5-5-5-5-5-5-5-|-5-5-5-5-5-5-5-5-|-5-5-5-5-5-5-5-5-|-5-5-5-5-5-5-5-5-|
C|-5-5-5-5-5-5-5-5-|-5-5-5-5-5-5-5-5-|-5-5-5-5-5-5-5-5-|-5-5-5-5-5-5-5-5-|

E|-----------------|-----------------|-----------------|-----------------|
C|-----------------|-----------------|-----------------|-----------------|
G|-----------------|-----------------|-----------------|-----------------|
C|-5-5-5-5-5-5-5-5-|-5-5-5-5-5-5-5-5-|-5-5-5-5-5-5-5-5-|-7-7-7-7-9-9-9-9-|
G|-5-5-5-5-5-5-5-5-|-5-5-5-5-5-5-5-5-|-5-5-5-5-5-5-5-5-|-5-5-5-5-5-5-5-5-|
C|-5-5-5-5-5-5-5-5-|-5-5-5-5-5-5-5-5-|-5-5-5-5-5-5-5-5-|-5-5-5-5-5-5-5-5-|

E|-----------------|-----------------|-----------------|-----------------|
C|-----------------|-----------------|-----------------|-----------------|
G|-----------------|-----------------|-----------------|-----------------|
C|-9-9-9-9-9-9-9-9-|-9-9-9-9-9-9-9-9-|-9-9-9-9-9-9-9-9-|-7-7-7-7-4-4-4-4-|
G|-5-5-5-5-5-5-5-5-|-5-5-5-5-5-5-5-5-|-5-5-5-5-5-5-5-5-|-5-5-5-5-5-5-5-5-|
C|-5-5-5-5-5-5-5-5-|-5-5-5-5-5-5-5-5-|-5-5-5-5-5-5-5-5-|-5-5-5-5-5-5-5-5-|

E|-----------------|-----------------|-----------------|-----------------|
C|-----------------|-----------------|-----------------|-----------------|
G|-----------------|-----------------|-----------------|-----------------|
C|-5-5-5-5-5-5-5-5-|-5-5-5-5-5-5-5-5-|-5-5-5-5-5-5-5-5-|-7-7-7-7-9-9-9-9-|
G|-5-5-5-5-5-5-5-5-|-5-5-5-5-5-5-5-5-|-5-5-5-5-5-5-5-5-|-5-5-5-5-5-5-5-5-|
C|-5-5-5-5-5-5-5-5-|-5-5-5-5-5-5-5-5-|-5-5-5-5-5-5-5-5-|-5-5-5-5-5-5-5-5-|


Break

E|-----------------|-----------------|-----------------|-----------------|
C|-----------------|-----------------|-----------------|-----------------|
G|-----------------|-----------------|-----------------|-----------------|
C|-3---3---3---3---|-3---3---3---3---|-3---3---3---3---|-3---3---3---3---|
G|-3---3---3---3---|-3---3---3---3---|-3---3---3---3---|-3---3---3---3---|
C|-3---3---3---3---|-3---3---3---3---|-3---3---3---3---|-3---3---3---3---|

E|-----------------|-----------------|-----------------|-----------------|
C|-----------------|-----------------|-----------------|-----------------|
G|-----------------|-----------------|-----------------|-----------------|
C|-3---3---3---3---|-3---3---3---3---|-3---3---3---3---|-3---3---3---3---|
G|-3---3---3---3---|-3---3---3---3---|-3---3---3---3---|-3---3---3---3---|
C|-3---3---3---3---|-3---3---3---3---|-3---3---3---3---|-3---3---3---3---|
                                       M   M   M   M     M   M   M   M


Instrumental Section A

E|-----------------------------|-----------------------------|
C|-----------------------------|-----------------------------|
G|-----------------------------|-----------------------------|
C|-----------------------------|-----------------------------|
G|-5------5------5------5------|-5------5------5------5------|
C|-5--5-5-5--5-5-5--5-5-5--5-5-|-5--5-5-5--5-5-5--5-5-5--5-5-|
      M M    M M    M M    M M      M M    M M    M M    M M

E|-----------------------------|-----------------------------|
C|-----------------------------|-----------------------------|
G|-----------------------------|-----------------------------|
C|-----------------------------|-----------------------------|
G|-5------5------5------5------|-5------5------5------5------|
C|-5--5-5-5--5-5-5--5-5-5--5-5-|-5--5-5-5--5-5-5--5-5-5--5-5-|
      M M    M M    M M    M M      M M    M M    M M    M M

E|-----------------------------|-----------------------------|
C|-----------------------------|-----------------------------|
G|-----------------------------|-----------------------------|
C|-----------------------------|-----------------------------|
G|-5------5------5------5------|-5------5------5------5------|
C|-5--5-5-5--5-5-5--5-5-5--5-5-|-5--5-5-5--5-5-5--5-5-5--5-5-|
      M M    M M    M M    M M      M M    M M    M M    M M

E|-----------------------------|-----------------------------|
C|-----------------------------|-----------------------------|
G|-----------------------------|-----------------------------|
C|-----------------------------|---------------9-------------|
G|-5------5------5------5------|-5------5------X-------------|
C|-5--5-5-5--5-5-5--5-5-5--5-5-|-5--5-5-5------9-------------|
      M M    M M    M M    M M      M M


Instrumental Section B

E|-----------------------------|-----------------------------|
C|-----------------------------|-----------------------------|
G|-----------------------------|-----------------------------|
C|-12--------------------------|---------------9-------------|
G|-XX--------------------------|---------------X-------------|
C|-12--------------------------|---------------9-------------|

E|-----------------------------|-----------------------------|
C|-----------------------------|-----------------------------|
G|-----------------------------|-----------------------------|
C|-12--------------------------|---------------9-------------|
G|-XX--------------------------|---------------X-------------|
C|-12--------------------------|---------------9-------------|

E|-----------------------------|-----------------------------|
C|-----------------------------|-----------------------------|
G|-----------------------------|-----------------------------|
C|-12--------------------------|---------------9-------------|
G|-XX--------------------------|---------------X-------------|
C|-12--------------------------|---------------9-------------|

E|-----------------------------|-----------------------------|
C|-----------------------------|-----------------------------|
G|-----------------------------|-----------------------------|
C|-12////14\\\\12--------------|---------------12------------|
G|-XX////XX\\\\XX--------------|---------------XX------------|
C|-12////14\\\\12--------------|---------------12------------|


Instrumental Section C

E|---------------|---------------|---------------|---------------|
C|---------------|---------------|---------------|---------------|
G|---------------|---------------|---------------|---------------|
C|-9-9-9-9-9-9-9-|-9-9-9-9-9-9-9-|-9-9-9-9-9-9-9-|-9-9-9-9-9-9-9-|
G|-X-X-X-X-X-X-X-|-X-X-X-X-X-X-X-|-X-X-X-X-X-X-X-|-X-X-X-X-X-X-X-|
C|-9-9-9-9-9-9-9-|-9-9-9-9-9-9-9-|-9-9-9-9-9-9-9-|-9-9-9-9-9-9-9-|

E|---------------|---------------|---------------|---------------|
C|---------------|---------------|---------------|---------------|
G|---------------|---------------|---------------|---------------|
C|-7-7-7-7-7-7-7-|-7-7-7-7-7-7-7-|-7-7-7-7-7-7-7-|-7-7-7-7-7-7-7-|
G|-X-X-X-X-X-X-X-|-X-X-X-X-X-X-X-|-X-X-X-X-X-X-X-|-X-X-X-X-X-X-X-|
C|-7-7-7-7-7-7-7-|-7-7-7-7-7-7-7-|-7-7-7-7-7-7-7-|-7-7-7-7-7-7-7-|

E|------------------------------|------------------------------|
C|------------------------------|------------------------------|
G|------------------------------|------------------------------|
C|-9------9------9--------------|-5------5------5--------------|
G|-X------X------X--------------|-5------5------5--------------|
C|-9--9-9-9--9-9-9--9-9-9-9-9-9-|-5--5-5-5--5-5-5--5-5-5-5-5-5-|
      M M    M M    M M M M M M      M M    M M    M M M M M M

E|------------------------------|------------------------------|
C|------------------------------|------------------------------|
G|------------------------------|------------------------------|
C|-5------5------5--------------|-5------5------9--------------|
G|-5------5------5--------------|-5------5------X--------------|
C|-5--5-5-5--5-5-5--5-5-5-5-5-5-|-5--5-5-5--5-5-9--------------|
      M M    M M    M M M M M M      M M    M M


Instrumental Section D


E|-----------------------------|-----------------------------|
C|-----------------------------|-----------------------------|
G|-----------------------------|-----------------------------|
C|-12--------------------------|---------------9-------------|
G|-XX--------------------------|---------------X-------------|
C|-12--------------------------|---------------9-------------|


E|-----------------------------|-----------------------------|
C|-----------------------------|-----------------------------|
G|-----------------------------|-----------------------------|
C|-12--------------------------|---------------9-------------|
G|-XX--------------------------|---------------X-------------|
C|-12--------------------------|---------------9-------------|


E|-----------------------------|-----------------------------|
C|-----------------------------|-----------------------------|
G|-----------------------------|-----------------------------|
C|-12--------------------------|---------------9-------------|
G|-XX--------------------------|---------------X-------------|
C|-12--------------------------|---------------9-------------|

E|-----------------------------|-----------------------------|
C|-----------------------------|-----------------------------|
G|-----------------------------|-----------------------------|
C|-12////14\\\\12--------------|---------------12------------|
G|-XX////XX\\\\XX--------------|---------------XX------------|
C|-12////14\\\\12--------------|---------------12------------|


Instrumental Section C

E|---------------|---------------|---------------|---------------|
C|---------------|---------------|---------------|---------------|
G|---------------|---------------|---------------|---------------|
C|-9-9-9-9-9-9-9-|-9-9-9-9-9-9-9-|-9-9-9-9-9-9-9-|-9-9-9-9-9-9-9-|
G|-X-X-X-X-X-X-X-|-X-X-X-X-X-X-X-|-X-X-X-X-X-X-X-|-X-X-X-X-X-X-X-|
C|-9-9-9-9-9-9-9-|-9-9-9-9-9-9-9-|-9-9-9-9-9-9-9-|-9-9-9-9-9-9-9-|

E|---------------|---------------|---------------|---------------|
C|---------------|---------------|---------------|---------------|
G|---------------|---------------|---------------|---------------|
C|-7-7-7-7-7-7-7-|-7-7-7-7-7-7-7-|-7-7-7-7-7-7-7-|-7-7-7-7-7-7-7-|
G|-X-X-X-X-X-X-X-|-X-X-X-X-X-X-X-|-X-X-X-X-X-X-X-|-X-X-X-X-X-X-X-|
C|-7-7-7-7-7-7-7-|-7-7-7-7-7-7-7-|-7-7-7-7-7-7-7-|-7-7-7-7-7-7-7-|

E|------------------------------|------------------------------|
C|------------------------------|------------------------------|
G|------------------------------|------------------------------|
C|-9------9------9--------------|-5------5------5--------------|
G|-X------X------X--------------|-5------5------5--------------|
C|-9--9-9-9--9-9-9--9-9-9-9-9-9-|-5--5-5-5--5-5-5--5-5-5-5-5-5-|
      M M    M M    M M M M M M      M M    M M    M M M M M M

E|------------------------------|------------------------------|
C|------------------------------|------------------------------|
G|------------------------------|------------------------------|
C|-5------5------5--------------|-5------5------5---5---5---5--|
G|-5------5------5--------------|-5------5------5---5---5---5--|
C|-5--5-5-5--5-5-5--5-5-5-5-5-5-|-5--5-5-5--5-5-5---5---5---5--|
      M M    M M    M M M M M M      M M    M M


Pre Chorus Section A

                                                       PH
E|-----------------------------|----------------------------|
C|-----------------------------|----------------------------|
G|-----------------------------|----------------------------|
C|-1------1------1------1------|-1------1--------------1----|
G|-1------1------1------1------|-1------1-------------------|
C|-1--1-1-1--1-1-1--1-1-1--1-1-|-1--1-1-1--1-1-1-1-1-1------|
      M M    M M    M M    M M      M M    M M M M M M



Pre Chorus Section B

E|-----------------------------|----------------------------|
C|-----------------------------|----------------------------|
G|-----------------------------|----------------------------|
C|-----------------------------|----------------------------|
G|-3------3------3------3------|-3------3------3--3--3--3-3-|
C|-5--5-5-5--5-5-5--5-5-5--5-5-|-5--5-5-5--5-5-5--5--5--5-5-|
      M M    M M    M M    M M      M M    M M


Pre Chorus Section C

                                                       PH
E|-----------------------------|----------------------------|
C|-----------------------------|----------------------------|
G|-----------------------------|----------------------------|
C|-1------1------1------1------|-1------1--------------1----|
G|-1------1------1------1------|-1------1-------------------|
C|-1--1-1-1--1-1-1--1-1-1--1-1-|-1--1-1-1--1-1-1-1-1-1------|
      M M    M M    M M    M M      M M    M M M M M M


Pre Chorus Section D

E|-----------------------------|----------------------------|
C|-----------------------------|----------------------------|
G|-----------------------------|----------------------------|
C|-----------------------------|----------------------------|
G|-3------3------3------3------|-3------3------3--3--3--3-3-|
C|-5--5-5-5--5-5-5--5-5-5--5-5-|-5--5-5-5--5-5-5--5--5--5-5-|
      M M    M M    M M    M M      M M    M M


Chorus

E|-----------------|-----------------|-----------------|-----------------|
C|-----------------|-----------------|-----------------|-----------------|
G|-----------------|-----------------|-----------------|-----------------|
C|-5-5-5-5-5-5-5-5-|-5-5-5-5-5-5-5-5-|-5-5-5-5-5-5-5-5-|-7-7-7-7-4-4-4-4-|
G|-5-5-5-5-5-5-5-5-|-5-5-5-5-5-5-5-5-|-5-5-5-5-5-5-5-5-|-5-5-5-5-5-5-5-5-|
C|-5-5-5-5-5-5-5-5-|-5-5-5-5-5-5-5-5-|-5-5-5-5-5-5-5-5-|-5-5-5-5-5-5-5-5-|

E|-----------------|-----------------|-----------------|-----------------|
C|-----------------|-----------------|-----------------|-----------------|
G|-----------------|-----------------|-----------------|-----------------|
C|-5-5-5-5-5-5-5-5-|-5-5-5-5-5-5-5-5-|-5-5-5-5-5-5-5-5-|-7-7-7-7-9-9-9-9-|
G|-5-5-5-5-5-5-5-5-|-5-5-5-5-5-5-5-5-|-5-5-5-5-5-5-5-5-|-5-5-5-5-5-5-5-5-|
C|-5-5-5-5-5-5-5-5-|-5-5-5-5-5-5-5-5-|-5-5-5-5-5-5-5-5-|-5-5-5-5-5-5-5-5-|

E|-----------------|-----------------|-----------------|-----------------|
C|-----------------|-----------------|-----------------|-----------------|
G|-----------------|-----------------|-----------------|-----------------|
C|-9-9-9-9-9-9-9-9-|-9-9-9-9-9-9-9-9-|-9-9-9-9-9-9-9-9-|-7-7-7-7-4-4-4-4-|
G|-5-5-5-5-5-5-5-5-|-5-5-5-5-5-5-5-5-|-5-5-5-5-5-5-5-5-|-5-5-5-5-5-5-5-5-|
C|-5-5-5-5-5-5-5-5-|-5-5-5-5-5-5-5-5-|-5-5-5-5-5-5-5-5-|-5-5-5-5-5-5-5-5-|

E|-----------------|-----------------|-----------------|-----------------|
C|-----------------|-----------------|-----------------|-----------------|
G|-----------------|-----------------|-----------------|-----------------|
C|-5-5-5-5-5-5-5-5-|-5-5-5-5-5-5-5-5-|-5-5-5-5-5-5-5-5-|-7-7-7-7-9-9-9-9-|
G|-5-5-5-5-5-5-5-5-|-5-5-5-5-5-5-5-5-|-5-5-5-5-5-5-5-5-|-5-5-5-5-5-5-5-5-|
C|-5-5-5-5-5-5-5-5-|-5-5-5-5-5-5-5-5-|-5-5-5-5-5-5-5-5-|-5-5-5-5-5-5-5-5-|


Outro Section A

E|-------------------------------|-------------------------------|
C|-------------------------------|-------------------------------|
G|-------------------------------|-------------------------------|
C|-----5-----------5-----------5*|********---------5-----------5-|
G|-5---5---5---5---5---5---5---5*|********-5---5---5---5---5---5-|
C|-5---5---5---5---5---5---5---5*|********-5---5---5---5---5---5-|
   M       M   M       M   M               M   M       M   M

E|-------------------------------|-------------------------|
C|-------------------------------|-------------------------|
G|-------------------------------|-------------------------|
C|-----5-----------5-----------5-|-7--7--7--7--4--4--4--4--|
G|-5---5---5---5---5---5---5---5-|-5--5--5--5--5--5--5--5--|
C|-5---5---5---5---5---5---5---5-|-5--5--5--5--5--5--5--5--|
   M       M   M       M   M


Outro Section B

E|-------------------------------|-------------------------------|
C|-------------------------------|-------------------------------|
G|-------------------------------|-------------------------------|
C|-----5-----------5-----------5*|********---------5-----------5-|
G|-5---5---5---5---5---5---5---5*|********-5---5---5---5---5---5-|
C|-5---5---5---5---5---5---5---5*|********-5---5---5---5---5---5-|
   M       M   M       M   M               M   M       M   M

E|-------------------------------|-------------------------|
C|-------------------------------|-------------------------|
G|-------------------------------|-------------------------|
C|-----5-----------5-----------5-|-7--7--7--7--9--9--9--9--|
G|-5---5---5---5---5---5---5---5-|-5--5--5--5--5--5--5--5--|
C|-5---5---5---5---5---5---5---5-|-5--5--5--5--5--5--5--5--|
   M       M   M       M   M


Outro Section C

E|-------------------------------|-------------------------------|
C|-------------------------------|-------------------------------|
G|-------------------------------|-------------------------------|
C|-----5-----------5-----------5*|********---------5-----------5-|
G|-5---5---5---5---5---5---5---5*|********-5---5---5---5---5---5-|
C|-5---5---5---5---5---5---5---5*|********-5---5---5---5---5---5-|
   M       M   M       M   M               M   M       M   M

E|-------------------------------|-------------------------|
C|-------------------------------|-------------------------|
G|-------------------------------|-------------------------|
C|-----5-----------5-----------5-|-7--7--7--7--4--4--4--4--|
G|-5---5---5---5---5---5---5---5-|-5--5--5--5--5--5--5--5--|
C|-5---5---5---5---5---5---5---5-|-5--5--5--5--5--5--5--5--|
   M       M   M       M   M


Outro Section D

E|-------------------------------|-------------------------------|
C|-------------------------------|-------------------------------|
G|-------------------------------|-------------------------------|
C|-----5-----------5-----------5*|********---------5-----------5-|
G|-5---5---5---5---5---5---5---5*|********-5---5---5---5---5---5-|
C|-5---5---5---5---5---5---5---5*|********-5---5---5---5---5---5-|
   M       M   M       M   M               M   M       M   M

E|-------------------------------|-------------------------|
C|-------------------------------|-------------------------|
G|-------------------------------|-------------------------|
C|-----5-----------5-----------5-|-7--7--7--7--9--9--9--9--|
G|-5---5---5---5---5---5---5---5-|-5--5--5--5--5--5--5--5--|
C|-5---5---5---5---5---5---5---5-|-5--5--5--5--5--5--5--5--|
   M       M   M       M   M

End

E|-5*****************************|-------------------------------|
C|-5*****************************|-------------------------------|
G|-5*****************************|-------------------------------|
C|-5*****************************|-------------------------------|
G|-5*****************************|-------------------------------|
C|-5*****************************|-------------------------------|
Добавлено: 20.07.2013
Другие материалы по этой песне:
  • Аккорды и текст

Страница создана 20.07.2013
http://primanota.ru/devin-townsend-project/kingdom-chords.htm
Привет, Гость.
Предлагаем пройти революционный курс по гитаре.
Подарок от PrimaNota.Ru, забирай!