PrimaNota.ru - самый крупный в мире бесплатный архив песенных текстов, аккордов, табулатур и нот


Devin Townsend Project - Addicted - таба, видео

Регистрация Запомнить меня
Войти через:  Facebook Google Twitter Vk Yandex Mail.ru

Devin Townsend Project - Addicted - таба, видео

Печатать
Просмотров: 165
Уроки эстрадного вокала в Санкт-Петербурге
Авторы музыки: Devin Townsend

Artist: Devin Townsend Project
Album:  Addicted (2009)
Song:   Addicted!

Tabbed by: Sami S. (indigo12@gmail.com)

This tab is transposed to a standard tuning of a 7 string guitar.
I only did the rhythm guitar, I was too lazy to figure out
the solo, maybe later. Have fun!

Tuning: B E A D G B E
(Devin uses Open B: B F# B F# B D#)


Intro:

E:|----------------------------------------|
B:|----------------------------------------|
G:|----------------------------------------|
D:|----------------------------------------|
A:|-5--5-----5--5-------5--5-----5--5------|
E:|-5--5-----5--5-------5--5-----5--5------|
B:|-3--3--0--3--3----0--3--3--0--3--3----0-|
          pm         pm	      pm         pm

E:|----------------------------------------|
B:|----------------------------------------|
G:|----------------------------------------|
D:|----------------------------------------|
A:|-5--5-----5--5-------5--5-----5--5------|
E:|-4--4-----4--4-------4--4-----4--4------|
B:|-3--3--0--3--3----0--3--3--0--3--3----0-|
          pm         pm	      pm         pm

E:|--------------------------------------------------|
B:|--------------------------------------------------|
G:|--------------------------------------------------|
D:|--------------------------------------------------|
A:|-5--5-----5--5------------5--5-----5--5-----------|
E:|-5--5-----5--5------------5--5-----5--5-----------|
B:|-3--3--0--3--3----0---0---3--3--0--3--3----0---0--|
          pm         pm	 pm        pm         pm  pm

E:|--------------------------------------------------|
B:|--------------------------------------------------|
G:|--------------------------------------------------|
D:|--------------------------------------------------|
A:|-5--5-----5--5------------5--5-----5--5-----------|
E:|-4--4-----4--4------------4--4-----4--4-----------|
B:|-3--3--0--3--3----0---0---3--3--0--3--3----0---0--|
          pm         pm	 pm        pm         pm  pm


Interlude:

   (3x)                            (1x)
E:|--------------------------------|-------------------------------------------------------------|
B:|--------------------------------|-------------------------------------------------------------|
G:|--------------------------------|-------------------------------------------------------------|
D:|--------------------------------|-------------------------------------------------------------|
A:|--------------------------------|-------------------------------------------------------------|
E:|--------------------------------|-------------------------------------------------------------|
B:|-2-3-3-3-3-3-3-2--3-3-3-3-3-3-3-|-2-3-3-3-3-3-3-3--3-3-3-3-3-3-3-3-3-3-3-3-3-2--3-3-3-3-3-3-3-|
							      /-----\ bend ½ steps up & back down

Basically the same with the intro riff

E:|------------------------------------------------|
B:|------------------------------------------------|
G:|------------------------------------------------|
D:|------------------------------------------------|
A:|-5--5-----5--5-----5-----5--5-----5--5-----5----|
E:|-5--5-----5--5-----5-----5--5-----5--5-----5----|
B:|-3--3--0--3--3--0--3--0--3--3--0--3--3--0--3--0-|
          pm       pm    pm       pm       pm    pm

E:|------------------------------------------------|
B:|------------------------------------------------|
G:|------------------------------------------------|
D:|------------------------------------------------|
A:|-5--5-----5--5-----5-----5--5-----5--5-----5----|
E:|-4--4-----4--4-----4-----4--4-----4--4-----4----|
B:|-3--3--0--3--3--0--3--0--3--3--0--3--3--0--3--0-|
          pm       pm    pm       pm       pm    pm


Verse 1:

Hey, you're awake and it keeps you where you're born to be..
   (3x)                            (1x)
E:|--------------------------------|-------------------------------------------------------------|
B:|--------------------------------|-------------------------------------------------------------|
G:|--------------------------------|-------------------------------------------------------------|
D:|--------------------------------|-------------------------------------------------------------|
A:|--------------------------------|-------------------------------------------------------------|
E:|--------------------------------|-------------------------------------------------------------|
B:|-2-3-3-3-3-3-3-2--3-3-3-3-3-3-3-|-2-3-3-3-3-3-3-3--3-3-3-3-3-3-3-3-3-3-3-3-3-2--3-3-3-3-3-3-3-|
							      /-----\ bend ½ steps up & back down


Oh! Let go! You're the only thing that keeps you..
E:|------------------------------------------------|
B:|------------------------------------------------|
G:|------------------------------------------------|
D:|------------------------------------------------|
A:|-5--5-----5--5-----5-----5--5-----5--5-----5----|
E:|-5--5-----5--5-----5-----5--5-----5--5-----5----|
B:|-3--3--0--3--3--0--3--0--3--3--0--3--3--0--3--0-|
          pm       pm    pm       pm       pm    pm

E:|------------------------------------------------|
B:|------------------------------------------------|
G:|------------------------------------------------|
D:|-------------------8-----------------------8----|
A:|-5--5-----5--5-----------5--5-----5--5----------|
E:|-4--4-----4--4-----6-----4--4-----4--4-----6----|
B:|-3--3--0--3--3--0-----0--3--3--0--3--3--0-----0-|
          pm       pm    pm       pm       pm    pm


Chorus:

(2x)
E:|------------------------------|
B:|------------------------------|
G:|------------------------------|
D:|------------------------------|
A:|-7..9..5..9..7..9..5..12..8..-
E:|------------------------------
B:|-5..7..3..7..5..7..3..10..6..-
(Listen to the song, you'll figure it out)

E:|------------------------------------------------|
B:|------------------------------------------------|
G:|------------------------------------------------|
D:|-------------------8-----------------------8----|
A:|-5--5-----5--5-----------5--5-----5--5----------|
E:|-5--5-----5--5-----6-----5--5-----5--5-----6----|
B:|-3--3--0--3--3--0-----0--3--3--0--3--3--0-----0-|
          pm       pm    pm       pm       pm    pm

E:|------------------------------------------------|
B:|------------------------------------------------|
G:|------------------------------------------------|
D:|-------------------8-----------------------8----|
A:|-5--5-----5--5-----------5--5-----5--5----------|
E:|-4--4-----4--4-----6-----4--4-----4--4-----6----|
B:|-3--3--0--3--3--0-----0--3--3--0--3--3--0-----0-|
          pm       pm    pm       pm       pm    pm

Solo A:

(1x)               (7x)
E:|----------------|------------------|
B:|----------------|------------------|
G:|----------------|------------------|
D:|----------------|------------------|
A:|-5--8--5---5--2-|-5-5-8--5--5---2--|
E:|-5--8--5---5--2-|-5-5-8--5--5---2--|
B:|-3--6--3---3--0-|-3-3-6--3--3---0--|
    pm    pm  pm pm-----    pm--------|

Solo B (Modulation, ½ steps up)

E:|-----------------|----------------|-----------------|-------------------|
B:|-----------------|----------------|-----------------|-------------------|
G:|-----------------|----------------|-----------------|-------------------|
D:|-----------------|----------------|-----------------|-------------------|
A:|-6-6-9--6--6---3-|-6-6-9--6--6--9-|-6-6-9--6--6---4-|-6-6-9--6--6-------|
E:|-6-6-9--6--6---3-|-6-6-9--6--6--9-|-6-6-9--6--6---4-|-6-6-9--6--6-------|
B:|-4-4-7--4--4---1-|-4-4-7--4--4--7-|-4-4-7--4--4---1-|-4-4-7--4--4---^2--|
    pm-    pm------   pm-    pm--      pm-    pm------   pm-    pm---------|   ^ bend ½ up & down

Solo C (½ steps down):

(1x)               (3x)
E:|-----------------|------------------|
B:|-----------------|------------------|
G:|-----------------|------------------|
D:|-----------------|------------------|
A:|-----8--5---5--5-|-5-5-8--5--5---5--|
E:|-----8--5---5--5-|-5-5-8--5--5---5--|
B:|-..^-6--3---3--3-|-3-3-6--3--3---3--|
           pm------   pm-    pm--------|


Solo D

(1x)              (7x)
E:|---------------|-----------------|
B:|---------------|-----------------|
G:|---------------|-----------------|
D:|---------------|-----------------|
A:|-5--8--5-5---2-|-5-5-8--5--5---2-|
E:|-5--8--5-5---2-|-5-5-8--5--5---2-|
B:|-3--6--3-3---0-|-3-3-6--3--3---0-|
(No palm muting on this one)


Verse 2:

Oh, let's go! I will not choose, I will not know control!
E:|------------------------------------------------|
B:|------------------------------------------------|
G:|------------------------------------------------|
D:|-------------------8-----------------------8----|
A:|-5--5-----5--5-----------5--5-----5--5----------|
E:|-5--5-----5--5-----6-----5--5-----5--5-----6----|
B:|-3--3--0--3--3--0-----0--3--3--0--3--3--0-----0-|
          pm       pm    pm       pm       pm    pm

E:|------------------------------------------------|
B:|------------------------------------------------|
G:|------------------------------------------------|
D:|-------------------8-----------------------8----|
A:|-5--5-----5--5-----------5--5-----5--5----------|
E:|-4--4-----4--4-----6-----4--4-----4--4-----6----|
B:|-3--3--0--3--3--0-----0--3--3--0--3--3--0-----0-|
          pm       pm    pm       pm       pm    pm


Chorus:

(4x)
E:|------------------------------|
B:|------------------------------|
G:|------------------------------|
D:|------------------------------|
A:|-7..9..5..9..7..9..5..12..8..-
E:|------------------------------
B:|-5..7..3..7..5..7..3..10..6..-
(Again, listen to the song, you'll figure it out)

E:|------------------------------------------------|
B:|------------------------------------------------|
G:|------------------------------------------------|
D:|-------------------8-----------------------8----|
A:|-5--5-----5--5-----------5--5-----5--5----------|
E:|-5--5-----5--5-----6-----5--5-----5--5-----6----|
B:|-3--3--0--3--3--0-----0--3--3--0--3--3--0-----0-|
          pm       pm    pm       pm       pm    pm

E:|------------------------------------------------|
B:|------------------------------------------------|
G:|------------------------------------------------|
D:|-------------------8-----------------------8----|
A:|-5--5-----5--5-----------5--5-----5--5----------|
E:|-4--4-----4--4-----6-----4--4-----4--4-----6----|
B:|-3--3--0--3--3--0-----0--3--3--0--3--3--0-----0-|
          pm       pm    pm       pm       pm    pm

The song ends in D5 leading to the next song, "Universe in a ball!".
Добавлено: 28.06.2012
Другие материалы по этой песне:
  • Аккорды и текст

Страница создана 28.06.2012
http://primanota.ru/devin-townsend-project/addicted-chords.htm
Привет, Гость.
Предлагаем пройти революционный курс по гитаре.
Подарок от PrimaNota.Ru, забирай!