PrimaNota.ru - самый крупный в мире бесплатный архив песенных текстов, аккордов, табулатур и нот


Devendra Banhart - Santa Maria De Feira - аккорды и текст, таба, видео

Регистрация Запомнить меня
Войти через:  Facebook Google Twitter Vk Yandex Mail.ru

Devendra Banhart - Santa Maria De Feira - аккорды и текст, таба, видео

Печатать
Просмотров: 131
Santa Maria De Feira
Devendra Banhart
Santa Maria De Feira
Devendra Banhart
Cripple Crow
Tabbed by Howard
witmachine@yahoo.com

update: I have added the fingerpicking rhythm to the chords.
The chords above the lyric correspond to the following patterns:

For the verse:
     D	
e |------------------------------------------------------------------|
B |---7---------7-----7---------7-----7---------7-----7---------7----|
G |-------7---------------7---------------7---------------7----------|
D |---------7---------------7---------------7---------------7--------|
A |-5---------------5---------------5---------------5----------------|
E |------------------------------------------------------------------|
     Em
e |-------------7---------------7---------------7---------------7----|
B |---8---------------8---------------8---------------8--------------|
G |-------9---------------9---------------9---------------9----------|
D |---------9---------------9---------------9---------------9--------|
A |-7---------------7---------------7---------------7----------------|
E |------------------------------------------------------------------|

For the chorus:
    F#m                             Em
e |-9-----------------------9-------7-----------------------7--------|
B |-------10------------10------10--------8-------------8------------|
G |-------------11------------------------------9--------------------|
D |------------------------------------------------------------------|
A |------------------------------------------------------------------|
E |------------------------------------------------------------------|
    Bm                               A  
e |------------------------------------------------------------------|
B |-7-------------------------------5---------------5----------------|
G |-------7-------------6---7-------------6--------------------------|
D |--------------9--------------9---------------7--------------------|
A |------------------------------------------------------------------|
E |------------------------------------------------------------------|

INTRO:

D

VERSE:

   D
Pensando
	       Em
Cada dia, cada hora
	    D
Pensando en ti

    D
Caminando
		  Em		
Mi cesta llena de moras
	 D
Son para ti

   D
Temprano
		      Em
Por la tarde y por la noche
	 D
Sueño de ti


CHORUS:

F#m
Ladi dadi dadi dadi dadi dadi
Em
Ladai didai didai
F#m
Ladi dadi dadi dadi dadi dadi
Em
Ladai didai didai
Bm	A
Oooh	Ohhhh


VERSE:

N.C.	 D
Comiendo pera
		  Em
Santa Maria de la Feira
	   D
Que placer ir

	 D
La gente buena
		    Em
Solo goza nunca hay pena
	  D
Pa' que sufrir?

  D
Jugando
		 Em
En el mar en la arena
	  D
Viviendo asi


CHORUS:

F#m
Ladi dadi dadi dadi dadi dadi
Em
Ladai didai didai
F#m
Ladi dadi dadi dadi dadi dadi
Em
Ladai didai didai
Bm	A
Oooh	Ohhhh


VERSE:

	D
Ventana blanca
		 Em
Hay que venga la mañana
	      D
Hay que venga otra vez

    D 
Esperando
			Em
Asi es como yo paso mi tiempo
	       D
Esperando a Inaniel

    D
Y rezando
		      Em
Por su calor, por su aliento
	 D
Sobre mi piel


CHORUS:

F#m
Te digo todo aquí va bien
 Em
Conmigo de no dormir
F#m
Amigo te suplico te lo pido
	Em
Que me ayudes a mí a mí
Bm	A
Oooh	Ohhhh


VERSE:

   D
Buscando
		   Em
Con mi ancla en la marea
	   D
Nadando en ti

	D
Yo voy andando
		 Em
Oigame te estoy llamando
	 D
Te amo a ti

	D
Por el valle
		    Em
Me encontré un rio escondido
	   D
Me ahogué allí

	D
Y me recuerdo
			Em
Hacía calor pero tenia frio
	D
Me iba morir

 D		      Em
Bianca, ay paloma angelina
	   D
Por fin te via

D	Em
Ohhh, ohhh
	   D
Por fin te vi



Hope the update helps.
Добавлено: 09.03.2012
Другие материалы по этой песне:
  • Аккорды и текст

Страница создана 09.03.2012
http://primanota.ru/devendra-banhart/santa-maria-de-feira-chords.htm
Привет, Гость.
Предлагаем пройти революционный курс по гитаре.
Подарок от PrimaNota.Ru, забирай!