PrimaNota.ru - самый крупный в мире бесплатный архив песенных текстов, аккордов, табулатур и нот


Devendra Banhart - Inaniel - текст песни, таба, видео

Регистрация Запомнить меня
Войти через:  Facebook Google Twitter Vk Yandex Mail.ru

Devendra Banhart - Inaniel - текст песни, таба, видео

Печатать
Просмотров: 365
-------------------------------------------------------------------------------
			     Inaniel – Devendra Banhart
-------------------------------------------------------------------------------

Tabbed by: Nicky Degheselle
Email: Nicky_degheselle@hotmail.com

Tuning: standard

“One thought of you is all it takes to leave the rest of the world behind”

  Intro:

e|--1-----0-1---------0-1---0-1---1-------5--------5(5)----5--------5--------|
B|----3-------3-----------3-----3-3-------5(5)-----5(5)----5(5)-----5--------|
G|------2-------2-------------------------5--------5(5)----5--------5--------|
D|----------------0-0---------------0----------------------------------------|
A|------------------------------------0-0------0-0---0-0-0—-(0)-0-0---0------|
E|---------------------------------------------------------------------------|
  
e|------0-1-------1-------0-1---0-1---0-1-------5--------5(5)----5--------5--|
B|----------3-----3-----------3-----3-----------5(5)-----5(5)----5(5)-----5--|
G|------------------2---------------------------5--------5(5)----5--------5--|
D|--0-0-------0-0-----0-0-----------------0----------------------------------|
A|------------------------------------------0-0------0-0---0-0-0—-(0)-0-0---0|
E|---------------------------------------------------------------------------|

  Verse/Chorus:

e|------0-1-------1-------1---5---1---------5--------5(5)----5--------5------|
B|----------3-----3--------(3)-(3)-(3)------5(5)-----5(5)----5(5)-----5------|
G|------------------2-----------------------5--------5(5)----5--------5------|
D|--0-0-------0-0-----0-0----------------------------------------------------|
A|--------------------------------------0-0------0-0---0-0-0—-(0)-0-0---0----|
E|---------------------------------------------------------------------------|
 					
					Or

e|------0-1-------1-------0---5---1---------5--------5(5)----5--------5------|
B|----------3-----3--------(3)-(3)-(3)------5(5)-----5(5)----5(5)-----5------|
G|------------------2-----------------------5--------5(5)----5--------5------|
D|--0-0-------0-0-----0-0----------------------------------------------------|
A|--------------------------------------0-0------0-0---0-0-0—-(0)-0-0---0----|
E|---------------------------------------------------------------------------|


  Outro: same as Verse/Chorus but without the (3)'s on the B string.


| /  slide up
| \  slide down
| h  hammer-on
| p  pull-off
| ~  vibrato
| +  harmonic
| x  Mute note
===============================================================================

Добавлено: 18.04.2012
Другие материалы по этой песне:
  • Аккорды и текст

Страница создана 18.04.2012
http://primanota.ru/devendra-banhart/inaniel-chords.htm
Привет, Гость.
Предлагаем пройти революционный курс по гитаре.
Подарок от PrimaNota.Ru, забирай!