PrimaNota.ru - самый крупный в мире бесплатный архив песенных текстов, аккордов, табулатур и нот


Devendra Banhart - Baby - таба, видео

Регистрация Запомнить меня
Войти через:  Facebook Google Twitter Vk Yandex Mail.ru

Devendra Banhart - Baby - таба, видео

Печатать
Просмотров: 259
Авторы: Devendra Banhart

                              "Baby"
                                by
                         Devendra Banhart

NOTE:One of my favorites off the new album. Enjoy!
I learned it by watching this video

http://www.youtube.com/watch?v=0r8-AkLCWjc&feature=related

(Intro/verses) Guitar 1: Devendra
e|------------------------------------------------------------------9--9--|
B|----------------------------------------10--------10------10-----10-10--|
G|-----9-------9----------9------9----------------------------------------|
D|-------9------------------9----------------11----------------11---------|
A|-7-7-------7------7--7-------7-----9--9---------9-----9-9---------------|
E|------------------------------------------------------------------------|

(Intro/verses) Guitar 2: Noah
e|-12--11--9---------------------------------------------------|
B|-10--------9---10-9-7-9-10--7/4---9------7-------------------|
G|-11---------------------------------9--8---8---6--6-8-9-6----|
D|---------------------------------------------9------------7--|
A|-------------------------------------------------------------|
E|-------------------------------------------------------------|

(Occasionally Noah will play this part higher. Listen to the song
to find out when exactly to play it higher.)
e|------------------------------------|---------------------|
B|------------------------------------|--10-10-9-9-7-7-9-9--|
G|--2-2-1-1-----1-1--2-2-1-1-----1-1--|---------------------|
D|----------4-4--------------4-4------|---------------------|
A|------------------------------------|---------------------|
E|------------------------------------|---------------------|

(Verses)Guitar 3: Rodrigo
e|-7----7------9------9---|
B|-9----9-----10-----10---|
G|-9----9-----11-----11---|
D|-9----9-----11-----11---|
A|-7----7------9------9---|
E|------------------------|

(CHORUS) 
Guitar 1: Devendra
e|-5-5-5-5-5-5-5-5-----------------5-5-5-5-5-5-5-5------------------|
B|-5-5-5-5-5-5-5-5-9-9-9-9-9-9-9-9-5-5-5-5-5-5-5-5-9-9-9-9-9-9-9-9--|
G|-6-6-6-6-6-6-6-6-9-9-9-9-9-9-9-9-6-6-6-6-6-6-6-6-9-9-9-9-9-9-9-9--|
D|-7-7-7-7-7-7-7-7-9-9-9-9-9-9-9-9-7-7-7-7-7-7-7-7-9-9-9-9-9-9-9-9--|
A|-7-7-7-7-7-7-7-7-7-7-7-7-7-7-7-7-7-7-7-7-7-7-7-7-7-7-7-7-7-7-7-7--|
E|-5-5-5-5-5-5-5-5-----------------5-5-5-5-5-5-5-5------------------|

e|-7-7-7-7-7-7-7-7--|
B|-7-7-7-7-7-7-7-7--|
G|-8-8-8-8-8-8-8-8--|
D|-9-9-9-9-9-9-9-9--|
A|-9-9-9-9-9-9-9-9--|
E|-7-7-7-7-7-7-7-7--|

(Not so sure about this part, kinda hard to hear)
Guitar 2 palm muted: Noah
e|--------------------------------------|
B|-10---10---10---10---9-----7-9-7------|
G|----9----9----9----9-----9-------9----|
D|-----------------------9-----------9--|
A|--------------------------------------|
E|--------------------------------------|

e|-----------------------------7--------|
B|-10---10---10---10---9-----9---9------|
G|----9----9----9----9-----9-------9----|
D|-----------------------9-----------9--|
A|--------------------------------------|
E|--------------------------------------|

e|-------7-------------7----------------|
B|-----7---7---------7---7--------------|
G|---8-------8-----8-------8------------|
D|-9-----------9-9-----------9----------|
A|--------------------------------------|
E|--------------------------------------|


SOLO


Guitar 1: Devendra
e|-16-14-12-12-11--9--| |---12-14--9---12-14--9---| 
B|--------------------| |-------------------------|   
G|--------------------| |-------------------------|
D|-18-16-14-14-13-11--| |---14-16-11---14-16-11---|
A|--------------------| |-------------------------|
E|--------------------| |-------------------------|

Guitar 2: Noah
e|--12-11-9--|
B|--10---(9)-|
G|--11-------|
D|-----------|
A|-----------|
E|-----------|

Guitar 3: Rodrigo
e|-7----7------9------9---|
B|-9----9-----10-----10---|
G|-9----9-----11-----11---|
D|-9----9-----11-----11---|
A|-7----7------9------9---|
E|------------------------|
Добавлено: 01.05.2012
Другие материалы по этой песне:
  • Аккорды и текст

Страница создана 01.05.2012
http://primanota.ru/devendra-banhart/baby-chords.htm
Привет, Гость.
Предлагаем пройти революционный курс по гитаре.
Подарок от PrimaNota.Ru, забирай!