PrimaNota.ru - самый крупный в мире бесплатный архив песенных текстов, аккордов, табулатур и нот


Devendra Banhart - Chrales C Leary - таба, видео

Регистрация Запомнить меня
Войти через:  Facebook Google Twitter Vk Yandex Mail.ru

Devendra Banhart - Chrales C Leary - таба, видео

Печатать
Просмотров: 106
Song : The Charles C. Leary
Artist : Devendra Banhart
Tabbed : Michel Engeln

Chrords : Am  e|-----     E  e|-----|
              B|--1--        B|-----|
              G|--2--        G|--1--|
              D|--2--        D|--2--|
              A|-----        A|--2--|
              E|-----        E|-----|

Intro

e|----0---0-----------0---0---0---------0---0---0-------|
B|----1---1-----------1---1---1---------1---1---1-------|
G|----2---2-----------2---2---2---------2---2---2-------|
D|------2-----0/1/2-----2-------0/1/2-----2-------0/1/2-| ...
A|--0-------0-------0-------0---------0-------0---------|
E|------------------------------------------------------|

e|----0---0---0---0---0---0---0---0-|
B|----1---1---1---1---1---1---1---0-|
G|----2---2---2---2---2---2---2---0-|
D|------2-------2-------2-------2---|
A|--0-------0-------0-------0-------|
E|----------------------------------|

I lost the gloves that my mother gave to me

e|----0---0---0---0---0---0---0---0-|
B|----0---0---0---0---1---1---1---0-|
G|----1---1---1---0---2---2---2---0-|
D|------2-------2-------2-------2---|
A|--2-------2-------0-------0-------|
E|----------------------------------|

While on my ways to the make believe sea

e|----0---0---0---0---0---0---0---0-|
B|----1---1---1---1---1---1---1---0-|
G|----2---2---2---2---2---2---2---0-|
D|------2-------2-------2-------2---|
A|--0-------0-------0-------0-------|
E|----------------------------------|

And I lost the rings that my lover gave to me

e|----0---0---0---0---0---0---0---0-|
B|----0---0---0---0---1---1---1---0-|
G|----1---1---1---0---2---2---2---0-|
D|------2-------2-------2-------2---|
A|--2-------2-------0-------0-------|
E|----------------------------------|

While on my ways to the Red Salt Sea

e|----------0---0---0---------0---0---0---------0---0---0---0---------0---0---0---0-|
B|----------1---1---1---------1---1---1---------0---0---0---0---------0---0---0---0-|
G|----------2---2---2---------2---2---2---------1---1---1---1---------1---1---1---1-|
D|--0/1/2-----2-------0/1/2-----2-------0/1/2-----2-------2---0/1/2-----2-------2---|
A|--------0-------0---------0-------0---------2-------2-------------2-------2-------|
E|----------------------------------------------------------------------------------|

Dadaladoo...

...etc...

And I lost my ways to my happy pen club
And ended up where I still can't say but
I lost my favorite pen on the way
And I lost my friend but that couldn't be
I lost the friend who sang with me
I lost my son but that couldn't be
I lost the son who sat on my knee
And I lost my friend but that couldn't be
I lost my man I let inside me
And I lost my friend that my love and I shared
While on my ways to the make believe cares
Dadaladoo...

And I lost the tunes that stuck to my ears
While on my ways to the make believe hears
And I saw Sapiena she sang to the sea
The only person left on the island was me
Dadaladoo...

And I love the man who took care of me
He owns the ship the Charles C. Leary
Yes I love the man who took care of me
He sails the world on the Charles C. Leary
Добавлено: 31.05.2012
Другие материалы по этой песне:
  • Аккорды и текст

Страница создана 31.05.2012
http://primanota.ru/devendra-banhart/chrales-c-leary-chords.htm
Привет, Гость.
Предлагаем пройти революционный курс по гитаре.
Подарок от PrimaNota.Ru, забирай!