PrimaNota.ru - самый крупный в мире бесплатный архив песенных текстов, аккордов, табулатур и нот


ДЕТИДЕТЕЙ - Ненадолго - аккорды и текст, видео

Регистрация Запомнить меня
Войти через:  Facebook Google Twitter Vk Yandex Mail.ru

ДЕТИДЕТЕЙ - Ненадолго - аккорды и текст, видео

Печатать
Просмотров: 161
Ненадолго
ДЕТИДЕТЕЙ
E||---------------------------|--------------------------|--------------------------|----------------------------| 
B||------------8--------8-----|-----------8--------8-----|-----------8--------8-----|----------------------------| 
G||*--------9-----9--------9--|--------9-----9--------9--|--------9-----9--------9--|----------------------------| 
D||*-----9-----------9--------|-----9-----------9--------|-----9-----------9--------|-----(9)----------(4)-------| 
A||---7-----------------------|--6-----------------------|--7-----------------------|--6------------2------------| 
E||---------------------------|--------------------------|--------------------------|----------------------------| 

|-------------------------|-------------------------|-------------------------|------------7---------0----------|| 
|-----------5-------5-----|-----------5-------5-----|-----------3-------3-----|--7------------------------------|| 
|--------5-------5-----5--|--------5-------5-----5--|--------4-------4-----4--|--------------------------------*|| 
|-----5-------------------|-----5-------------------|-----4-------------------|--------------------------------*|| 
|--3----------------------|--3----------------------|--2----------------------|---------------------------------|| 
|-------------------------|-------------------------|-------------------------|---------------------------------|| 

Мы сон, мы трава, мы тени скользящие, 
Какие-то зыбкие, ненастоящие 
Вращается звёздное небо над нами, 
А мы мотыльки на игле мирозданья. 
Ты кровью своей моё сердце питаешь, 
но мы ненадолго, и ты это знаешь. 
Так надо ль сердцами с тобой срастаться, 
Ведь, может быть, завтра придётся расстаться? 

Припев: 
Мы, мы ненадолго 
Мы, мы ненадолго 

Конверты для снов распечатаны, 
Утро сожжёт эти письма лучами рассветными. 
Ты знаешь, мне их не жаль абсолютно. 
Кроме того, одного, безответного, 
Там мы нарисованы яркими красками, 
Как видят нас дети наших детей, 
Они рассказали нам главную сказку, 
Ты знаешь, мне не страшно теперь. 

Припев. 

Em(VII) 
Но тонкие красные ниточки наши, 
Em(VII)/Eb 
На золоте спиц в петельки случайные, 
Em(VII) 
Вдруг встретились, распускается пряжа, 
Em(VII)/Eb 
Всё рвётся вокруг, а мы с силой отчаянной 
C(III) 
Сплелись узелком и держимся так, 
Будто бы нас не разлучит беда. 
Bm 
Часы пошли вспять, это был знак: 
Когда мы вместе, мы навсегда! 

Припев: 
Мы, мы навсегда! Мы навсегда! 
Мы, мы навсегда! Мы навсегда... 

Мы, мы ненадолго 
Добавлено: 28.03.2016
Другие материалы по этой песне:
  • Аккорды и текст

Страница создана 02.12.2013
http://primanota.ru/detidetei/nenadolgo-chords.htm
Привет, Гость.
Предлагаем пройти революционный курс по гитаре.
Подарок от PrimaNota.Ru, забирай!