PrimaNota.ru - самый крупный в мире бесплатный архив песенных текстов, аккордов, табулатур и нот


ДЕТИДЕТЕЙ - Синее-синее - аккорды и текст, видео

Регистрация Запомнить меня
Войти через:  Facebook Google Twitter Vk Yandex Mail.ru

ДЕТИДЕТЕЙ - Синее-синее - аккорды и текст, видео

Печатать
Просмотров: 117
Синее-синее
ДЕТИДЕТЕЙ
Вступление:                       2 раза
  E||----------2-3-2----------2-3-2----||
  B||------3---------3----3---------3--||
  G||*--2----2----------2---2---------*||
  D||*--------------------------------*||
  A||----------------------------------||
  E||----------------------------------||

 (в оригинале на октаву выше, но не на каждой гитаре это сыграешь :)) :
  E||------------14-15-14--------------14-15-14----||
  B||------15-------------15-----15-------------15-||
  G||--14-----14--------------14----14-------------||
  D||----------------------------------------------||
  A||----------------------------------------------||
  E||----------------------------------------------||

 D
Поздно, она знает, всё поздно приходит.
 G
Больно помнить, ждать больно
  E              A                D
Прилива выброшенным на берег дельфинам,
     G
Дельфинам.

Прости ей долгие взгляды
Куда-то вслед ветру.
Будь рядом, почитай ей на ночь про море
И ты можешь услышать, как

Припев: 
    Bm          A        G               F#
  Она поёт во сне на языке дельфиньем, снится ей 
       Bm     A    G     F#
  Бескрайнееееее, синее-синее.
  Она поёт во сне на языке дельфиньем, снится ей 
  Бескрайнее, синее-синее.

Проигрыш: Em | Em | Em | Em | Bm | D | F# | F# |

  E||------------14-15-14--------------14-15-14----||
  B||------15-------------15-----15-------------15-||
  G||--14-----14--------------14----14-------------||
  D||----------------------------------------------||
  A||----------------------------------------------||
  E||----------------------------------------------||

Прощался тот сон с ней дыханьем прибоя, 
И солнце его провожало 
Лучом, по волнам бегущим.
Чем ближе утро, тем громче

Припев.
Добавлено: 28.03.2016
Другие материалы по этой песне:
  • Аккорды и текст

Страница создана 14.09.2013
http://primanota.ru/detidetei/sinee-sinee-chords.htm
Привет, Гость.
Предлагаем пройти революционный курс по гитаре.
Подарок от PrimaNota.Ru, забирай!