PrimaNota.ru - самый крупный в мире бесплатный архив песенных текстов, аккордов, табулатур и нот


ДЕТИДЕТЕЙ - Ненадо - аккорды и текст, видео

Регистрация Запомнить меня
Войти через:  Facebook Google Twitter Vk Yandex Mail.ru

ДЕТИДЕТЕЙ - Ненадо - аккорды и текст, видео

Печатать
Просмотров: 208
Ненадо
ДЕТИДЕТЕЙ
Вступление:
  E||----------------------------------|----------------------------------|----------------------------------|
  B||----------------------------------|----------------------------------|----------------------------------|
  G||----------------------------------|----------------------------------|----------------------------------|
  D||-------9----10---------9----10----|-------9----10---------9----10----|--7----9----10----7----9----10----|
  A||--7---------------7---------------|--7---------------7---------------|----------------------------------|
  E||----------------------------------|----------------------------------|----------------------------------|

    |----------------------------------|--------------------------------|--------------------------------|
    |----------------------------------|--------------------------------|--------------------------------|
    |----------------------------------|--------------------------------|--------------------------------|
    |--7----9----10----7----9----10----|--5----7----9----5----7----9----|--5----7----9----5----7----9----|
    |----------------------------------|--------------------------------|--------------------------------|
    |----------------------------------|--------------------------------|--------------------------------|

    |--------------------------------|-----------------------------------||
    |--------------------------------|-----------------------------------||
    |--------------------------------|-----------------------------------||
    |--------------------------------|-----------------------------------||
    |--6----7----9----6----7----9----|--7----9----10----9----10----12----||
    |--------------------------------|-----------------------------------||

Куплет:
  E||------------------------------------|--------------------------------|--------------------------------|
  B||------------------------------------|--------------------------------|--------------------------------|
  G||*-----------------------------------|--------------------------------|--------------------------------|
  D||*-----------------------------------|--------------------------------|--------------------------------|
  A||---------2--2--3----------2----3----|-------2----3---------2----3----|--0----2----3----0----2----3----|
  E||---0-----------------0--------------|--0--------------0--------------|--------------------------------|
    Ничего,      пустота,    небеса,   красота,  вечером,  нечего.

    |--------------------------------|--------------------------------|--------------------------------|
    |--------------------------------|--------------------------------|--------------------------------|
    |--------------------------------|--------------------------------|--------------------------------|
    |--------------------------------|--------------------------------|--------------------------------|
    |--0----2----3----0----2----3----|--------------------------------|--------------------------------|
    |--------------------------------|--3----5----7----3----5----7----|--3----5----7----3----5----7----|
       Суета.            Странно.                

    |--------------------------------|---------------------------------||
    |--------------------------------|---------------------------------||
    |--------------------------------|--------------------------------*||
    |--1----2----4----1----2----4----|--------------------------------*||
    |--------------------------------|---------------------------------||
    |--------------------------------|--0----2----3----2----3----5-----||
  Страшно.

Поломал - не болит. Полоса на всегда.
Звон в ушах, не могу.
Солнца свет. Страшно. Странно.

Припев:
     Em                   Am
  Тянусь к тебе зелёными листами, 
     G                   B7
  Бегу к тебе солеными слезами.
       Em                     Am
  К тебе, к тебе, потаёнными мыслями 
        G                  B7
  Так сложно, но проще не надо. 
      Em  Am
  Не надо. 
      G   Bm
  Не надо. 

Седину яркими вылечу красками, 
Сказками, для тебя, всё равно. 
Странно. Страшно.
Улица движется, видится, слышится, 
Нитями вытяну из себя.
Страшно. Странно.

Припев. 
 +
Не надо. 
Не надо. 
Тянусь к тебе зелёнами листами, 
Бегу к тебе солеными слезами 
К тебе, к тебе...
Добавлено: 28.03.2016
Другие материалы по этой песне:
  • Аккорды и текст

Страница создана 20.09.2013
http://primanota.ru/detidetei/nenado-chords.htm
Привет, Гость.
Предлагаем пройти революционный курс по гитаре.
Подарок от PrimaNota.Ru, забирай!