PrimaNota.ru - самый крупный в мире бесплатный архив песенных текстов, аккордов, табулатур и нот


Demons And Wizards - My Last Sunrise - текст песни, таба, видео

Регистрация Запомнить меня
Войти через:  Facebook Google Twitter Vk Yandex Mail.ru

Demons And Wizards - My Last Sunrise - текст песни, таба, видео

Печатать
Просмотров: 160
As recorded by Demons & Wizards
(From the 1999 Album DEMONS & WIZARDS)

Transcribed by Russ Elton (webmaster@abysslord.com), Jordan B. (sansamppsa1@hotmail.com)
        

Words and Music by Jon Schaffer/Hansi Kürsch
Arranged by Russ Elton (webmaster@abysslord.com)

Gtr I (Eb Ab Db Gb Bb Eb) - 'Clean Guitar'
Gtr II (Eb Ab Db Gb Bb Eb) - 'Distortion Guitar'
Gtr III (Eb Ab Db Gb Bb Eb) - 'Lead Guitar'
Gtr IV (Eb Ab Db Gb Bb Eb) - 'Harmony Guitar'

   Verse
    Q=130
    Em
   4/4
    Gtr I
    E E E E E E E E   +E  E E E E E Q
||----------7-------|-----------7-------|
||o-------8---8-----|-------------8-----|
||------9-------9---|---------9-----9\--|
||----9-----------9-|-(9)---9-----------|
||o-7---------------|-----7-------------|
||------------------|-------------------|


  D#m
  E E E E E E E E   +E  E E E E Q.     6x
|---------6-------|-----------6--------||
|-------7---7-----|-------------7-----o||
|-----8-------8---|---------8----------||
|---8-----------8-|-(8)---8------------||
|-6---------------|-----6-------------o||
|-----------------|--------------------||


 Chorus
  E5/B   G5F#5/E5/B         G5F#5/D#
  Gtr II
     PM|     PM         PM|     PM
  Q  E E E E E E   +Q   E E E E E E
|----------------|------------------|
|----------------|------------------|
|----------------|------------------|
|-2------5-4---2-|-(2)------5-4---5-|
|-2------5-4---2-|-(2)------5-4---6-|
|----0-0-----0---|------0-0-----0---|


               E D#                   E D#
       PM--|       PM         PM--|       PM|
  +Q   E S S a E E E E   +Q   E S S a E E E E
|----------------------|----------------------|
|----------------------|----------------------|
|----------------------|----------------------|
|-(5)--------5s6-5---5-|-(5)--------5s6-5-----|
|-(6)--6-6-6-6s7-6-6-6-|-(6)--6-6-6-6s7-6-----|
|----------------------|------------------0-0-|


  E5/B   G5F#5/E5/B         G5F#5/D#
     PM|     PM         PM|     PM
  Q  E E E E E E   +Q   E E E E E E
|----------------|------------------|
|----------------|------------------|
|----------------|------------------|
|-2------5-4---2-|-(2)------5-4---5-|
|-2------5-4---2-|-(2)------5-4---6-|
|----0-0-----0---|------0-0-----0---|


               E D#                   E D#
       PM--|       PM         PM--|
  +Q   E S S a E E E E   +Q   E S S a E E Q
|----------------------|---------------------||
|----------------------|---------------------||
|----------------------|---------------------||
|-(5)--------5s6-5---5-|-(5)--------5s6-5----||
|-(6)--6-6-6-6s7-6-6-6-|-(6)--6-6-6-6s7-6----||
|----------------------|---------------------||


   Verse
    Em
    Gtr I
    E E E E E E E E   +E  E E E E E Q
||----------7-------|-----------7-------|
||o-------8---8-----|-------------8-----|
||------9-------9---|---------9-----9\--|
||----9-----------9-|-(9)---9-----------|
||o-7---------------|-----7-------------|
||------------------|-------------------|


  D#m
  E E E E E E E E   +E  E E E E Q.     4x
|---------6-------|-----------6--------||
|-------7---7-----|-------------7-----o||
|-----8-------8---|---------8----------||
|---8-----------8-|-(8)---8------------||
|-6---------------|-----6-------------o||
|-----------------|--------------------||


   Chorus
    E5/B   G5F#5/E5/B         G5F#5/D#
    Gtr II
       PM|     PM         PM|     PM
    Q  E E E E E E   +Q   E E E E E E
||-----------------|------------------|
||o----------------|------------------|
||-----------------|------------------|
||--2------5-4---2-|-(2)------5-4---5-|
||o-2------5-4---2-|-(2)------5-4---6-|
||-----0-0-----0---|------0-0-----0---|


               E D#                   E D#
       PM--|       PM         PM--|       PM|
  +Q   E S S a E E E E   +Q   E S S a E E E E   3x
|----------------------|------------------------||
|----------------------|-----------------------o||
|----------------------|------------------------||
|-(5)--------5s6-5---5-|-(5)--------5s6-5-------||
|-(6)--6-6-6-6s7-6-6-6-|-(6)--6-6-6-6s7-6------o||
|----------------------|------------------0-0---||


  E5/B   G5F#5/E5/B         G5F#5/D#
     PM|     PM         PM|     PM
  Q  E E E E E E   +Q   E E E E E E
|----------------|------------------|
|----------------|------------------|
|----------------|------------------|
|-2------5-4---2-|-(2)------5-4---5-|
|-2------5-4---2-|-(2)------5-4---6-|
|----0-0-----0---|------0-0-----0---|


               E D#                   E D#
       PM--|       PM         PM--|
  +Q   E S S a E E E E   +Q   E S S a E E Q    Wx4
|----------------------|---------------------|--------||
|----------------------|---------------------|--------||
|----------------------|---------------------|--------||
|-(5)--------5s6-5---5-|-(5)--------5s6-5----|--------||
|-(6)--6-6-6-6s7-6-6-6-|-(6)--6-6-6-6s7-6----|--------||
|----------------------|---------------------|--------||


   Bridge
    Q.=130
            E5
   12/8
    PM----|   PM----------------------|   PM---------------
    E S S E E E E E E E E E E   E S S E E E E E E E E E E
||----------------------------|---------------------------|
||o---------------------------|---------------------------|
||----------------------------|---------------------------|
||----------------------------|---------------------------|
||o---------2-----------------|---------2-----------------|
||--0-0-0-0-0-0-0-3-2-0-3-2-0-|-0-0-0-0-0-0-0-3-2-0-3-2-0-|


          D#5           E5              D#5           E5
 -------|   PM--------|         PM----|   PM--------|
  E S S E E E E E S S E E E E   E S S E E E E E S S E E E E     3x
|-----------------------------|---------------------------------||
|-----------------------------|--------------------------------o||
|-----------------------------|---------------------------------||
|---------8-------------9-9-9-|---------8-------------9-9-9-----||
|-6-6-6-6-6-6-6-6-6-6-6-7-7-7-|-6-6-6-6-6-6-6-6-6-6-6-7-7-7----o||
|-----------------------------|---------------------------------||


   Interlude
    $
    E5           D#5E5                          D#5E5  D#5E5
    Gtr III
    E E E  E E E  E E E  E  E  E   E E E  E E E  E E E  E  E  E
||-------------------------------|------------------------------|
||o-------12-----10-----10-12-13-|-------12-----10-----13-12-10-|
||--9---9------9------9----------|-9---9------9------9----------|
||-------------------------------|------------------------------|
||o------------------------------|------------------------------|
||-------------------------------|------------------------------|
|
|   Gtr II
|   PM  PM   PM-------|            PM  PM   PM-------------------
|   E E E  E E E  E E E  E  Q      E E E  E E E  E E E  E  E  E
||-------------------------------|------------------------------|
||o------------------------------|------------------------------|
||-------------------------------|------------------------------|
||--9---9----9-9--8-9-9----------|-9---9----9-9--8-9-9--8--9--9-|
||o-7---7----7-7--6-7-7----------|-7---7----7-7--6-7-7--6--7--7-|
||-------------------------------|------------------------------|


                                                   To Coda
  D#5          D5D#5                        D5D#5 D5 D#5
  E E E  E E E E E E E  E  E   E E E  E E E E E E  E  E E
|----------------------------|-------------------------------||
|-------11-----9-----9-11-12-|-------11-----9-----12-11-9---o||
|-8---8------8-----8---------|-8---8------8-----8------------||
|----------------------------|-------------------------------||
|----------------------------|------------------------------o||
|----------------------------|-------------------------------||
|
|-|   PM   PM------|           PM  PM   PM--------------|
| E E E  E E E E E E E  Q      E E E  E E E E E E  E  E E
|----------------------------|-------------------------------||
|----------------------------|------------------------------o||
|----------------------------|-------------------------------||
|-8---8----8-8-7-8-8---------|-8---8----8-8-7-8-8--7--8-8----||
|-6---6----6-6-5-6-6---------|-6---6----6-6-5-6-6--5--6-6---o||
|----------------------------|-------------------------------||


   Bridge
            E5
    Gtr II
    PM----|   PM----------------------|   PM---------------
    E S S E E E E E E E E E E   E S S E E E E E E E E E E
||----------------------------|---------------------------|
||o---------------------------|---------------------------|
||----------------------------|---------------------------|
||----------------------------|---------------------------|
||o---------2-----------------|---------2-----------------|
||--0-0-0-0-0-0-0-3-2-0-3-2-0-|-0-0-0-0-0-0-0-3-2-0-3-2-0-|


                                                D.S. al Coda
          D#5           E5              D#5           E5
 -------|   PM--------|         PM----|   PM--------|
  E S S E E E E E S S E E E E   E S S E E E E E S S E E E E
|-----------------------------|-------------------------------||
|-----------------------------|------------------------------o||
|-----------------------------|-------------------------------||
|---------8-------------9-9-9-|---------8-------------9-9-9---||
|-6-6-6-6-6-6-6-6-6-6-6-7-7-7-|-6-6-6-6-6-6-6-6-6-6-6-7-7-7--o||
|-----------------------------|-------------------------------||


   Bridge
    &
    E5            C5     B5          F5    E5
    Gtr II
    H.      +Q.   Q.     Q.   +Q   E  Q.   Q.
||---------------------|------------------------|
||o--------------------|------------------------|
||----------------5----|-4----(4)----10----9----|
||--2-------(2)---5----|-4----(4)----10----9----|
||o-2-------(2)---3----|-2----(2)--0--8----7----|
||--0-------(0)--------|------------------------|


  D#5                   D#5
                PM--|
  H.      +Q.   E E E   W.
|---------------------|--------||
|---------------------|-------o||
|-8-------(8)---------|-8------||
|-8-------(8)---------|-8------||
|-6-------(6)---5-6-8-|-6-----o||
|---------------------|--------||


 Outro
  N.C.
  PM--------------------------------------------------------------|
  E S S E E S S E E S S E E S S E   E S S E E S S E E S S E E S S E
|---------------------------------|---------------------------------|
|---------------------------------|---------------------------------|
|---------------------------------|---------------------------------|
|---------------------------------|---------------------------------|
|---------------------------------|-----------------8-8-8-8-7-7-7-7-|
|-0-0-0-0-0-0-0-0-0-0-0-0-8-8-8-8-|-7-7-7-7-7-7-7-7-----------------|


  PM----------------------------------------------------------|
  E S S E E S S E E S S E E E E   E S S E E S S E E S S E E E E
|-------------------------------|-------------------------------|
|-------------------------------|-------------------------------|
|-------------------------------|-------------------------------|
|-------------------------------|-------------------------------|
|-6-6-6-6-6-6-6-6-6-6-6-6-5-6-8-|-6-6-6-6-6-6-6-6-6-6-6-6-5-6-8-|
|-------------------------------|-------------------------------|


    N.C.
    Gtr IV
     E E   E  E E   E  E E   E  E E   E    E E   E  E E   E  E E   E  E E   E
||--12-7-----12-7-----12-7-----12-7-----|-14-7-----12-7-----11-7-----12-7------|
||o--------8--------8--------8--------8-|--------8--------8--------8--------7--|
||--------------------------------------|--------------------------------------|
||--------------------------------------|--------------------------------------|
||o-------------------------------------|--------------------------------------|
||--------------------------------------|--------------------------------------|
|
|   Gtr III
|    E E   E  E E   E  E E   E  E E   E    E E   E  E E   E  E E   E  E E   E
||--------------------------------------|--------------------------------------|
||o-12-8-----12-8-----12-8-----12-8-----|-13-8-----12-8-----11-8-----12-8------|
||---------9--------9--------9--------9-|--------9--------9--------9--------8--|
||--------------------------------------|--------------------------------------|
||o-------------------------------------|--------------------------------------|
||--------------------------------------|--------------------------------------|
|
|   Gtr II
|    PM---------------------------------------------------------------------|
|    E S S E  E S S E  E S S E  E S S E    E S S E  E S S E  E S S E  E S S E
||--------------------------------------|--------------------------------------|
||o-------------------------------------|--------------------------------------|
||--------------------------------------|--------------------------------------|
||--------------------------------------|--------------------------------------|
||o-------------------------------------|--------------------8-8-8-8--7-7-7-7--|
||---0-0-0-0--0-0-0-0--0-0-0-0--8-8-8-8-|--7-7-7-7--7-7-7-7--------------------|


   E E   E  E E   E  E E   E  E E E    E E   E  E E   E  E E   E  E E E  4x
|-11-6-----11-6-----11-6-----11-6---|-12-6-----11-6-----10-6-----11-6----||
|--------7--------7--------7------7-|--------7--------7--------7------7-o||
|-----------------------------------|------------------------------------||
|-----------------------------------|------------------------------------||
|-----------------------------------|-----------------------------------o||
|-----------------------------------|------------------------------------||
|
|  E E   E  E E   E  E E   E  E E E    E E   E  E E   E  E E   E  E E E  4x
|-----------------------------------|------------------------------------||
|-11-7-----11-7-----11-7-----11-7---|-12-7-----11-7-----10-7-----11-7---o||
|--------8--------8--------8------8-|--------8--------8--------8------8--||
|-----------------------------------|------------------------------------||
|-----------------------------------|-----------------------------------o||
|-----------------------------------|------------------------------------||
|
|  PM-----------------------------------------------------------------|
|  E S S E  E S S E  E S S E  E E E    E S S E  E S S E  E S S E  E E E  4x
|-----------------------------------|------------------------------------||
|-----------------------------------|-----------------------------------o||
|-----------------------------------|------------------------------------||
|-----------------------------------|------------------------------------||
|--6-6-6-6--6-6-6-6--6-6-6-6--5-6-8-|--6-6-6-6--6-6-6-6--6-6-6-6--5-6-8-o||
|-----------------------------------|------------------------------------||



Duration Legend
---------------
W - whole; H - half; Q - quarter; E - 8th; S - 16th; T - 32nd; X - 64th; a - acciaccatura
+ - note tied to previous; . - note dotted; .. - note double dotted
Uncapitalized letters represent notes that are staccato (1/2 duration)
Irregular groupings are notated above the duration line
Duration letters will always appear directly above the note/fret number it represents the
duration for.  Duration letters with no fret number below them represent rests.  Multi-
bar rests are notated in the form Wxn, where n is the number of bars to rest for.  Low
melody durations appear below the staff

Tablature Legend
----------------
 h   - hammer-on
 p   - pull-off
 b   - bend
 pb  - pre-bend
 r   - bend release (if no number after the r, then release immediately)
 /\  - slide into or out of (from/to "nowhere")
 s   - legato slide
 S   - shift slide
 - natural harmonic
[n]  - artificial harmonic
n(n) - tapped harmonic
 ~   - vibrato
 tr  - trill
 T   - tap
 TP  - trem. picking
 PM  - palm muting
\n/  - tremolo bar dip; n = amount to dip
 \n  - tremolo bar down
 n/  - tremolo bar up
/n\  - tremolo bar inverted dip
 =   - hold bend; also acts as connecting device for hammers/pulls
 <> - volume swell (louder/softer)
 x   - on rhythm slash represents muted slash
 o   - on rhythm slash represents single note slash

Misc Legend
-----------
 |  - bar
||  - double bar
||o - repeat start
o|| - repeat end
*|  - double bar (ending)
 :  - bar (freetime)
 $  - Segno
 &  - Coda
Tempo markers -  = BPM(8/16=s8/s16), where s8 = swing 8ths, s16 = swing 16ths

Добавлено: 24.05.2012
Другие материалы по этой песне:

Страница создана 24.05.2012
http://primanota.ru/demons-and-wizards/my-last-sunrise-chords.htm
Привет, Гость.
Предлагаем пройти революционный курс по гитаре.
Подарок от PrimaNota.Ru, забирай!