PrimaNota.ru - самый крупный в мире бесплатный архив песенных текстов, аккордов, табулатур и нот


Deicide - The Stench Of Redemption - текст песни, таба, видео

Регистрация Запомнить меня
Войти через:  Facebook Google Twitter Vk Yandex Mail.ru

Deicide - The Stench Of Redemption - текст песни, таба, видео

Печатать
Просмотров: 190
Deicide-the Stench of redemption
This is in eb standard tuning
b-bend up 2 notes
eb---------------------------------------------------------------------------|
bb---------------------------------------------------------------------------|
gb---------------------------------------------------------------------------|
db---------------------------------------------------------------------------|
ab---8-7-------8-7--8-7------8-----------------------------------------------|
eb---6-5--0-0--6-5--6-5--0-0-7-----------------------------------------------|
play this 4 times

eb---------------------------------------------------------------------------|
bb---------------------------------------------------------------------------|
gb---------------------------------------------------------------------------|
db---------------------------------------------------------------------------|
ab---8-7-------8-7--8-7------8---999-666-555---------------------------------|
eb---6-5--0-0--6-5--6-5--0-0-7-----------------------------------------------|

eb----------------------------------------------------------------------------|
bb----------------------------------------------------------------------------|
gb----------------------------------------------------------------------------|
db----------------------------------------------------------------------------|
ab8-7-------8-7--8-7------8-999-666-555--999-666-555-999-666-555-999-666-555--|
eb6-5--0-0--6-5--6-5--0-0-7---------------------------------------------------|
play 4 times

eb---------------------------------------------------------------------------|
bb---------------------------------------------------------------------------|
gb---------------------------------------------------------------------------|
db---------------------------------------------------------------------------|
ab--8-7-----8----------------------8-7-----8-7-8-7-----9---------------------|
eb--6-5-0-0-6-0-0-0-0-0-0-0-0-0-0--6-5-0-0-6-5-6-5-0-0-7---------------------|

eb---------------------------------------------------------------------------|
bb---------------------------------------------------------------------------|
gb-------------------------------------------12-13-15------------------------|
db----------------------------------12-13-15---------------------------------|
ab-8-7-----9---------------12-13-15------------------------------------------|
eb-6-5-0-0-7-0-0--12-13-15---------------------------------------------------|

eb---------------------------------------------------------------------------|
bb---------------------------------------------------------------------------|
gb---------------------------------------------------------------------------|
db---------------------------------------------------------------------------|
ab14141414141414141717171717171717171616161616161616-------------------------|
eb--------------------------------------------------141414141414141----------|

eb---------------------------------------------------------------------------|
bb---------------------------------------------------------------------------|
gb---------------------------------------------------------------------------|
db---------------------------------------------------------------------------|
ab-1414141414141414171717171717171719191919191919191717171717171717----------|
eb---------------------------------------------------------------------------|

eb---------------------------------------------------------------------------|
bb---------------------------------------------------------------------------|
gb---------------------------------------------------------------------------|
db---------444---------444----------444---------444---------222--------------|
ab--000-222---222---222---222----222---222---222---222---222---222-----------|
eb---------------333----------222---------000---------000--------------------|

eb---------------------------------------------------------------------------|
bb----------101010------------121212------------101010---------------111111--|
gb-------888------888------999------999------888------888------101010--------|
db-101010----------- 101010------------101010------------101010--------------|
ab---------------------------------------------------------------------------|
eb---------------------------------------------------------------------------|

eb---------------------------------------------------------------------------|
bb------101010------999------888------777------666------666------------------|
gb---999---------999------999------999------999------999---------------------|
db777---------666------555------444------333------222------------------------|
ab---------------------------------------------------------------------------|
eb---------------------------------------------------------------------------|
Ralph's solo
eb-----------------------------------------------15-15---------12-15--17-----|
bb----------------------------------------------------13-----13--------------|
gb------------------------------------5-7-9-5-7-9-------12-12----------------|
db-------------------------5-7-9-5-7-9---------------------------------------|
ab--------------5-7-8-5-7-8--------------------------------------------------|
eb--5-7-8-5-7-8--------------------------------------------------------------|

eb--19-20-19-19-20-19-17-19-17-15-17-15-13-15-13-12-13-12-10-12-10-8-10-8-7--|
bb---------------------------------------------------------------------------|
gb---------------------------------------------------------------------------|
db---------------------------------------------------------------------------|
ab---------------------------------------------------------------------------|
eb---------------------------------------------------------------------------|

eb--8-7-5--------------------------------------------------------------------|
bb-------8-6-5---------------------------------------------------------------|
gb------------9-7-5----------------------------------------------------------|
db-----------------9-7-5-----------------------------------0-5-7-9-7-5-0-----|
ab----------------------8-7-5-----------------0-5-7-8-7-5-0------------------|
eb---------------------------5-5-0-5-7-8-7-5-0-------------------------------|

eb----------------------0-5-7-8-7-5-0--22-20-19-20-19-19--17-22-20-19--------|
bb-----------0-5-6-8-6-5-----------------------------------------------------|
gb0-5-7-9-7-5----------------------------------------------------------------|
db---------------------------------------------------------------------------|
ab---------------------------------------------------------------------------|
eb---------------------------------------------------------------------------|

eb20-19-17-19-17-15--17-15-13--15-13-12--24-----------------17--22-----------|
bb------------------------------------------22------------17------20---------|
gb------------------------------------------------------17-------------------|
db----------------------------------------------------19---------------------|
ab--------------------------------------------------19-----------------------|
eb---------------------------------------------17-20-------------------------|

eb22-20-19-17-15-20-19-17-22-20-17-------------------------------------------|
bb---------------------------------------------------------------------------|
gb---------------------------------------------------------------------------|
db---------------------------------------------------------------------------|
ab---------------------------------------------------------------------------|
eb---------------------------------------------------------------------------|
Jack's solo
eb-12--12--12----19--17--16--15---14-12-12-12-15-15-14-14-12-12--------------|
bb-15b-15b-15b-----17--16--15--14------------------------------16-13-12------|
gb---------------------------------------------------------------------------|
db---------------------------------------------------------------------------|
ab---------------------------------------------------------------------------|
eb---------------------------------------------------------------------------|

eb----------------------------------------10-9-10-12-12-10-9-10--------------|
bb-12-12-12-16-16-13-13-12-12--10-8--7--5------------------------------------|
gb---------------------------------------------------------------------------|
db---------------------------------------------------------------------------|
ab---------------------------------------------------------------------------|
eb---------------------------------------------------------------------------|

eb15-14-15-17-17-15-14-15--19-17-19-20-19-20-22-22b-22-b---------------------|
bb---------------------------------------------------------------------------|
gb---------------------------------------------------------------------------|
db---------------------------------------------------------------------------|
ab---------------------------------------------------------------------------|
eb---------------------------------------------------------------------------|


This is not the correct timing but it should give you an idea.If i were to tab the whole 
out it would take too fucking long!
Добавлено: 05.05.2012
Другие материалы по этой песне:
  • Аккорды и текст

Страница создана 05.05.2012
http://primanota.ru/deicide/the-stench-of-redemption-chords.htm
Привет, Гость.
Предлагаем пройти революционный курс по гитаре.
Подарок от PrimaNota.Ru, забирай!