PrimaNota.ru - самый крупный в мире бесплатный архив песенных текстов, аккордов, табулатур и нот


Deicide - Into The Darkness You Go - текст песни, таба, видео

Регистрация Запомнить меня
Войти через:  Facebook Google Twitter Vk Yandex Mail.ru

Deicide - Into The Darkness You Go - текст песни, таба, видео

Печатать
Просмотров: 83
Уроки эстрадного вокала в Санкт-Петербурге
------------------------------------------------------------------------------
                             Into The Darkness U Go - Deicide(solo only)
-------------------------------------------------------------------------------
Tabbed by: metal_wecaste(audoushred)
E-mail:

Tuning: Standard

e|---------------------------------------------------------------------------|
B|---------------------------------------------------------------------------|
G|------------9----------------------------------------------13-14-16-17-+17-|
D|---------------11--9h10p9----9-----------------------12-14-----------------|
A|-8~~~-9--12---------------12----8---12--------11--14-----------------------|
E|-------------------------------------------12------------------------------|


e|---------------------------------------------15--18--T(23)--18--15---------|
B|------------------------------------------16----------------------16-------|
G|--14-16---16-14------------------------15---------------------------15-----|
D|---------------14-------------------17--------------------------------17---|
A|-----------------15--12-15-14---/18-------------------------------------18-|
E|---------------------------------------------------------------------------|

e|---------------------------------------------------------------------------|
B|----------------------------------------11--13-----------13-12-------------|
G|--/14--/13-14~~~--------------10--12-13-----------10--13-------------------|
D|--/15--/14-14~~~-----------10----------------------------------------------|
A|------------------8--10-11-------------------------------------------------|
E|---------------------------------------------------------------------------|

e|-------------------------------------16-20-19-17---------------------------|
B|----------------------------------17------------17---13--------------------|
G|---------------------------13--16-----------------------16-14----17-16-----|
D|--------9--14----------14-------------------------------------14-----------|
A|-----11---------11--14-----------------------------------------------------|
E|--12-----------------------------------------------------------------------|


e|--11h12p11-T12-------------------------------------------------------------|
B|--------------12h13p12-T13------------------------(+)12~~~~----------------|
G|--------------------------9h10p9-T10---------------------------------------|
D|--------------------------------------9h10p9-T10---------------------------|
A|---------------------------------------------------------------------------|
E|---------------------------------------------------------------------------|

e|---------------------------------------------------------------------------|
B|---------------------------------------------------------------------------|
G|-------------------------------------10---10-12-10-12----13-12-10-13-12-10-|
D|----------------------------------10----10---------------------------------|
A|--8--8--10-8-10---10h11p10-8----13-----------------------------------------|
E|---11----------------------------------------------------------------------|

e|---------------------------------------------------------------------------|
B|---------------------------------------------------------------------------|
G|-----------10----10-12-10-12--13-12-10-------------------------------------|
D|--10-10-10----10-----------------------------------------------------------|
A|---------------------------------------------------------------------------|
E|---------------------------------------------------------------------------|

e|-------------------------------13----------13-15-15h16-13--13~~~~----------|
B|-----------13--16-------13--16------15-16----------------------------------|
G|-12-13--15-----------15----------------------------------------------------|
D|---------------------------------------------------------------------------|
A|---------------------------------------------------------------------------|
E|---------------------------------------------------------------------------|


e|--23-------------11--------------------------------------------------------|
B|-----24---\21-------12--\10---5-4-0----------------------------------------|
G|--------20-------------9--------------\4---/8~~~~--------------------------|
D|------------------------------------6--------------------------------------|
A|---------------------------------------------------------------------------|
E|---------------------------------------------------------------------------|

e|---------------------------------------------------------------------------|
B|-----------------------------------------------------16-------13-14-16/18--|
G|-10~~---10-12-13/15~~-----12-13-15/17~~-----13-15-17-------13--------------|
D|-----10----------------13----------------15--------------------------------|
A|---------------------------------------------------------------------------|
E|---------------------------------------------------------------------------|

e|------11-13-15/16-----13-15-16/18-----15-16-18/20~~~~~---------------------|
B|--13---------------13--------------16--------------------------------------|
G|---------------------------------------------------------------------------|
D|---------------------------------------------------------------------------|
A|---------------------------------------------------------------------------|
E|---------------------------------------------------------------------------|

e|-------------------------------------------------------------------11-13---|
B|---------------------------------------------11-13-11---------11-13--------|
G|----------------------------10--12-13-----11----------11----11-------------|
D|--------10--15-10---------10-----------13----------------13----------------|
A|-----11-----------11---11--------------------------------------------------|
E|--13----------------13-----------------------------------------------------|

e|------------------------------------------------------------------14-16-T21|
B|--------------------------------------------14-16-14--------14-16----------|
G|------------------------------15-17------15----------15--15----------------|
D|-------13-15-13---------13-16---------16---------------16------------------|
A|-----15---------15---15----------------------------------------------------|
E|--16--------------16-------------------------------------------------------|

e|-16p14p11h14h16--23b~~~~~--------------------------------------------------|
B|---------------------------------------------------------------------------|
G|---------------------------------------------------------------------------|
D|---------------------------------------------------------------------------|
A|---------------------------------------------------------------------------|
E|---------------------------------------------------------------------------|



************************************

| /   slide up
| \   slide down
| h   hammer-on
| p   pull-off
| ~   vibrato
| +   harmonic
| x   Mute note
| b   Bend
| pb  Pre-bend
| br  Bend release
| pbr Pre-bend release
| brb Bend release bend
| T  Pick Hand Tapping

************************************
Добавлено: 25.06.2016
Другие материалы по этой песне:
  • Аккорды и текст

Страница создана 15.09.2014
http://primanota.ru/deicide/into-darkness-you-go-chords.htm
Привет, Гость.
Предлагаем пройти революционный курс по гитаре.
Подарок от PrimaNota.Ru, забирай!