PrimaNota.ru - самый крупный в мире бесплатный архив песенных текстов, аккордов, табулатур и нот


Def Leppard - Comin Under Fire - текст песни, таба, видео

Регистрация Запомнить меня
Войти через:  Facebook Google Twitter Vk Yandex Mail.ru

Def Leppard - Comin Under Fire - текст песни, таба, видео

Печатать
Просмотров: 186
Авторы: Pete Willis, Robert John “Mutt” Lange, Joe Elliott, Steve Clark

Gtr I
                             ~~~
  E E E E E E E E   E E E E +E  E Q
|-----------------|------------------|
|-------------8---|---7-7------------|
|-----9-----7---7-|---7-7-5-(5)-5-7--|
|---9-----9-------|-7----------------|
|-7-----7---------|------------------|
|-----------------|------------------|
|
| Gtr II
| W                 W
|-----------------|------------------|
|-----------------|------------------|
|-----------------|------------------|
|-----------------|------------------|
|-----------------|------------------|
|-----------------|------------------|


  E E E E E E E E   E  E E  E    +E   E  Q
|-----------------|--------------------------|
|-------------8---|--------------------------|
|-----9-----7---7-|------7--5----(5)--5--7---|
|---9-----9-------|----7---------------------|
|-7-----7---------|-5------------------------|
|-----------------|--------------------------|
|
| W                 Q.      Q         E  Q
|-----------------|--------------------------|
|-----------------|--------------------------|
|-----------------|--------14b16r====14-12---|
|-----------------|--------------------------|
|-----------------|--------------------------|
|-----------------|--------------------------|


                                 ~~~
   E E E E E E E E     E  E E E +E  E Q
|------------------|---------------------|
|--------------8---|------7-7------------|
|------9-----7---7-|------7-7-5-(5)-5-7--|
|----9-----9-------|---7-----------------|
|--7-----7---------|---------------------|
|------------------|---------------------|
|
|  ~~~~~~~~~~~~~~~~~~~~~~~~~~~~~~~~~~~~~~~
|  W                  +W
|------------------|---------------------|
|------------------|---------------------|
|------------------|---------------------|
|-14---------------|-(14)----------------|
|------------------|---------------------|
|------------------|---------------------|


   E E E E E E E E     E  E E Q.        Q
|------------------|------------------------|
|--------------8---|------------------------|
|------9-----7---7-|--------7-5\------------|
|----9-----9-------|------7---5\------------|
|--7-----7---------|---5--------------------|
|------------------|------------------------|
|
|~~~~~~~~~~~~~~~~~~~~~~~~~~~~~~~~~~~~~
|  W                  +H          +E  Q   E
|-12---------------|-(12)--------(12)-------|
|------------------|------------------------|
|------------------|------------------------|
|------------------|------------------------|
|------------------|------------------------|
|------------------|------------------------|


  Gtrs I, II
  E E E E E E E E   E E E H    +E    E E E E E E E E   E E E  H           +E
|-----------------|----------------|-----------------|------------------------|
|-----5-----------|----------------|-----5-----------|--------3-----------(3)-|
|-----4-----------|-5-----5----(5)-|-----4-----------|-5------2-----------(2)-|
|-----------5-----|-4-----5----(5)-|-----------5-----|-4------0-----------(0)-|
|-----------------|----------------|-----------------|------------------------|
|-0-0---0-0---0-0-|---0-0----------|-0-0---0-0---0-0-|---0-0------------------|
|
| W                 W                W                 E Q    Q.      +E   E
|-----------------|----------------|-----------------|------------------------|
|-----------------|----------------|-----------------|-------15b17r==(15)-13--|
|-----------------|----------------|-----------------|------------------------|
|-----------------|----------------|-----------------|------------------------|
|-----------------|----------------|-----------------|------------------------|
|-----------------|----------------|-----------------|------------------------|


   E    E E E  E    E  E  E    E    E  E  H        +E
|---------------------------|--------------------------|
|---------5-----------------|--------------------------|
|---------4-----------------|--5----------5--------(5)-|
|-------------------5-------|--4----------5--------(5)-|
|---------------------------|--------------------------|
|--0----0---0--0-------0--0-|-------0--0---------------|
|
|              ~~~~~                         ~~
|  H           Q       E  E    Q       E  E  Q   E  E
|---------------------------|--------------------------|
|-15b17-------15b17---12----|--------------------------|
|------------------------14-|-14b16r==14-12-14--12-11--|
|---------------------------|--------------------------|
|---------------------------|--------------------------|
|---------------------------|--------------------------|


   E  E  E  E  E  E  E  E    E     E  E  H          +E
|-------------------------|-------------------------------|
|--------5----------------|--------------3----------(3)---|
|--------4----------------|--5-----------2----------(2)---|
|-----------------5-------|--4-----------0----------(0)---|
|-------------------------|-------------------------------|
|--0--0-----0--0-----0--0-|--------0--0-------------------|
|
|  E  E  E  E  E  E  E  E    E     E  E  Q.    S  S  S  S
|-------------------------|-------------19----19p17S15p12-|
|-------------------12-15-|-15b17r15-12-------------------|
|-12-11----11-12-14-------|-------------------------------|
|-------14----------------|-------------------------------|
|-------------------------|-------------------------------|
|-------------------------|-------------------------------|


 Verse
  Gtr III
  W          Q.   Q.   Q    +Q   H    +Q     Q.   Q.   Q
|-0--------|-2----3----0--|-(0)--2----(2)--|-2----3----0--|
|-0--------|-1----1----0--|-(0)--3----(3)--|-1----1----0--|
|-0--------|-0----0----0--|-(0)--2----(2)--|-0----0----0--|
|-2--------|-2----2----2--|-(2)--2----(2)--|-2----2----2--|
|-2--------|-----------2--|-(2)------------|-----------2--|
|-0--------|-----------0--|-(0)------------|-----------0--|


                        D5
  Gtr II
  W          H       Q  E E   +W          +H     +Q  Q
                        | |    |           |      |
                        / /    /           /      /

  Gtr III
  W          Q.   Q.    Q      W           Q  H      E E
|-0--------|-2----3---------|-----------|------------0-0-|
|-0--------|-1----1---------|-----------|------------0-0-|
|-0--------|-0----0---------|-----------|------------0-0-|
|-2--------|-2----2---------|-----------|------------2-2-|
|-2--------|----------------|-----------|------------2-2-|
|-0--------|----------------|-----------|------------0-0-|


  W          Q.   Q.   Q    +Q   H    +Q     Q.   Q.   Q
|-0--------|-2----3----0--|-(0)--2----(2)--|-2----3----0--|
|-0--------|-1----1----0--|-(0)--3----(3)--|-1----1----0--|
|-0--------|-0----0----0--|-(0)--2----(2)--|-0----0----0--|
|-2--------|-2----2----2--|-(2)--2----(2)--|-2----2----2--|
|-2--------|-----------2--|-(2)------------|-----------2--|
|-0--------|-----------0--|-(0)------------|-----------0--|


                                                 C5  B5
  Gtr II
  W          H       Q  E E   +W          +H     E E E E
                        | |    |           |     | | | |
                        / /    /           /     / / / /

  Gtr III                                 Gtr I
  W          Q.   Q.    Q      W           Q  H      E E
|-0--------|-2----3---------|-----------|----------------|
|-0--------|-1----1---------|-----------|----------------|
|-0--------|-0----0---------|-----------|------------4-4-|
|-2--------|-2----2---------|-----------|------------4-4-|
|-2--------|----------------|-----------|------------2-2-|
|-0--------|----------------|-----------|----------------|


   Chorus
    Gtrs I, II
    E E E E E E E E   E E E E E E E E   Q  +E  Q  E E E   E E E E E E E E
||------------------|-----------------|-----------------|-------------------||
||o-----------------|-----------------|-----------------|------------------o||
||------------------|-----------------|-----------------|-------------------||
||------------------|-------------2-2-|-7--(7)S5--------|-------5-5-4-4-----||
||o-----------------|---------5-5-0-0-|-5--(5)S3--3-3-3-|-3-3-3-3-3-2-2----o||
||--0-0-0-0-0-0-0-0-|-0-0-0-0-3-3-----|-----------------|-------------------||


 Verse 2
  PM----------------------------------------------------------------|
  E E E E E E E E   E E E E E E E E   E E E E E E E E   E E E E E E E E
|-----------------|-----------------|-----------------|-----------------|
|-----------------|-----------------|-----------------|-----------------|
|-----4-----------|-----------------|-----------------|-----------------|
|-----------5-----|-4-----5-----5---|---4-----4---4---|-4-----5-----5---|
|-----------------|-----------------|-----------------|-----------------|
|-0-0---0-0---0-0-|---0-0---0-0---0-|-0---0-0---0---0-|---0-0---0-0---0-|


  PM----------------------|
  E E E E E E E E   E E E E E  E   Q    +W           +H     E E E E
|-----------------|-------------------|------------|----------------|
|-----------------|-------------------|------------|----------------|
|-----------------|-------------------|------------|----------------|
|-----5-----5---5-|---4---5----7---7--|-(7)--------|-(7)----5-5-4-4-|
|-----------------|------------5---5--|-(5)--------|-(5)----3-3-2-2-|
|-0-0---0-0---0---|-0---0-------------|------------|----------------|
|
|                   Gtr I
| W                 E H        E   Q     W            W
|-----------------|---------------12--|-12---------|----------------|
|-----------------|-----------11\-----|------------|----------------|
|-----------------|-------------------|------------|----------------|
|-----------------|-------------------|------------|----------------|
|-----------------|-------------------|------------|----------------|
|-----------------|-------------------|------------|----------------|


   Chorus
    Gtrs I, II
    E E E E E E E E   E E E E E E E E   Q  +E  Q  E E E   E E E E E E E E
||------------------|-----------------|-----------------|-------------------||
||o-----------------|-----------------|-----------------|------------------o||
||------------------|-----------------|-----------------|-------------------||
||------------------|-------------2-2-|-7--(7)S5--------|-------5-5-4-4-----||
||o-----------------|---------5-5-0-0-|-5--(5)S3--3-3-3-|-3-3-3-3-3-2-2----o||
||--0-0-0-0-0-0-0-0-|-0-0-0-0-3-3-----|-----------------|-------------------||


 Bridge
  E E E E E E E E   E E E H    +E    E E E E E E E E   E E E H    +E
|-----------------|----------------|-----------------|----------------|
|-----5-----------|----------------|-----5-----------|----------------|
|-----4-----------|-5-----5----(5)-|-----4-----------|-5-----5----(5)-|
|-----------5-----|-4-----5----(5)-|-----------5-----|-4-----5----(5)-|
|-----------------|----------------|-----------------|----------------|
|-0-0---0-0---0-0-|---0-0----------|-0-0---0-0---0-0-|---0-0----------|


  W                 W                W
|-----------------|----------------|-----------------|
|-----------------|----------------|-----------------|
|-----------------|----------------|-----------------|
|-----------------|----------------|-----------------|
|-----------------|----------------|-----------------|
|-----------------|----------------|-----------------|
|
| Gtrs I, II
| E E E E E E E E   E E E H    +E    E E E E E E E E
|-----------------|----------------|-----------------|
|-----5-----------|----------------|-----5-----------|
|-----4-----------|-5-----5----(5)-|-----4-----------|
|-----------5-----|-4-----5----(5)-|-----------5-----|
|-----------------|----------------|-----------------|
|-0-0---0-0---0-0-|---0-0----------|-0-0---0-0---0-0-|


                   Gtr I
  W                 Q       H           E  E
|----------------|-12b14---12b14-------12-10-|
|----------------|---------------------------|
|----------------|---------------------------|
|----------------|---------------------------|
|----------------|---------------------------|
|----------------|---------------------------|
|
|                  Gtr II
| E E E H    +E     E    E  E    E E E  E  E
|----------------|---------------------------|
|-------3----(3)-|----------5----------------|
|-5-----2----(2)-|----------4----------------|
|-4-----0----(0)-|-------------------5-------|
|----------------|---------------------------|
|---0-0----------|--0----0-------0-0----0--0-|


 Guitar Solo
   Q.        E     +Q.       S   S
|---------------------------12--12-|
|-10b12-----10b12-(10)b12----------|
|----------------------------------|
|----------------------------------|
|----------------------------------|
|----------------------------------|
|
|  E    E E  H              +E
|----------------------------------|
|----------------------------------|
|--5---------5--------------(5)----|
|--4---------5--------------(5)----|
|----------------------------------|
|-------0-0------------------------|


   H        +E   E  S  S  S  S    E  S  S  E  E  +E   E  +Q
|-12-------(12)-12-12-10-------|----12---------------------------|
|------------------------12-10-|-12----12------------------------|
|------------------------------|----------12-11-(11)-------------|
|------------------------------|---------------------12-(12)-----|
|------------------------------|---------------------------------|
|------------------------------|---------------------------------|
|
|  E E E E   E   E  E     E       E  E     E  H              +E
|------------------------------|---------------------------------|
|------5-----------------------|--------------3--------------(3)-|
|------4-----------------------|--5-----------2--------------(2)-|
|----------------5-------------|--4-----------0--------------(0)-|
|------------------------------|---------------------------------|
|--0-0---0---0------0-----0----|-----0-----0---------------------|


                                           ~~~~~~~~~~~~~
  E  E  E  E  E  E  E  E    E     S  S  E  E     +Q       E     E
|------------------------|-------------------------------------------|
|------------------------|-------------------------------------------|
|---------------------12-|-14b16-14-12-14-14b16-(14)b16--14b16-14b16-|
|---------------12-14----|-------------------------------------------|
|---------12-14----------|-------------------------------------------|
|---12-15----------------|-------------------------------------------|
|
| E  E  E  E  E  E  E  E    E     E     E  H                   +E
|------------------------|-------------------------------------------|
|-------5----------------|-------------------------------------------|
|-------4----------------|--5--------------5-------------------(5)---|
|----------------5-------|--4--------------5-------------------(5)---|
|------------------------|-------------------------------------------|
|-0--0-----0--0-----0--0-|--------0-----0----------------------------|


   +E      E  E  S     S  Q       E     E    E     E  S  S  E  E  +E   E  +E
|---------15-15---------------------------|------------------------------------|
|--------------------------------15b17r15-|-15b17r15---------------------------|
|-(14)b16-------14b16r14-14b16------------|----------12-14-12-11-(11)-12-(12)--|
|-----------------------------------------|------------------------------------|
|-----------------------------------------|------------------------------------|
|-----------------------------------------|------------------------------------|
|
|   E      E  E  E        E    E  E     E    E     E  E     H             +E
|-----------------------------------------|------------------------------------|
|-------------5---------------------------|-----------------3-------------(3)--|
|-------------4---------------------------|--5--------------2-------------(2)--|
|------------------------------5----------|--4--------------0-------------(0)--|
|-----------------------------------------|------------------------------------|
|---0------0-----0--------0-------0-----0-|--------0--0------------------------|


 Verse 3
  Gtrs I, II
  q  Q  q  Q    q  Q  H      E e Q  q  Q    q  Q  H
|-------------|------------|--------------|------------|
|-------------|------------|--------------|-------3----|
|-------------|-------5----|--------------|-------2----|
|-2-----2-----|-2-----5----|-2-2----2-----|-2-----0----|
|-2-----2-----|-2-----3----|-2-2----2-----|-2----------|
|-0-----0-----|-0----------|-0-0----0-----|-0----------|


  q  Q  q  Q    q  Q  H      E E +H.        +H     E E E E
|-------------|------------|--------------|----------------|
|-------------|------------|-3-3-(3)------|-(3)------------|
|-------------|-------5----|-2-2-(2)------|-(2)------------|
|-2-----2-----|-2-----5----|-0-0-(0)------|-(0)----5-5-4-4-|
|-2-----2-----|-2-----3----|--------------|--------3-3-2-2-|
|-0-----0-----|-0----------|--------------|----------------|


 Chorus
  Gtr I
  H        E  E  Q       E  E  Q    H
|---------------------|---------------------|
|---------------------|---------------------|
|---------12-12-------|-12-12---------------|
|---------------14\---|-------14\-----------|
|---------------------|---------------------|
|---------------------|---------------------|
|
| Gtr II
| E E E E  E  E  E  E    E  E  E  E E E E E
|---------------------|---------------------|
|---------------------|---------------------|
|---------------------|---------------------|
|---------------------|-----------------2-2-|
|---------------------|-------------5-5-0-0-|
|-0-0-0-0--0--0--0--0-|--0--0--0--0-3-3-----|


                           ~~~~~~~~~
  W                 Q   E  Q     Q    E
|-----------------|---------------------|
|-----------------|---------------------|
|-----------------|---------------------|
|-----------------|---------------------|
|-----------------|-----2-[3]---[2]-----|
|-----------------|---------------------|
|
| Q  +E  Q  E E E   E E E  E  E  E  E E
|-----------------|---------------------|
|-----------------|---------------------|
|-----------------|---------------------|
|-7--(7)S5--------|--------5--5--4--4---|
|-5--(5)S3--3-3-3-|-3-3-3--3--3--2--2---|
|-----------------|---------------------|


  W                 W
|-----------------|-----------------|
|-----------------|-----------------|
|-----------------|-----------------|
|-----------------|-----------------|
|-----------------|-----------------|
|-----------------|-----------------|
|
| E E E E E E E E   E E E E E E E E
|-----------------|-----------------|
|-----------------|-----------------|
|-----------------|-----------------|
|-----------------|-------------2-2-|
|-----------------|---------5-5-0-0-|
|-0-0-0-0-0-0-0-0-|-0-0-0-0-3-3-----|


  W                 Q    Q       E  E  Q
|-----------------|-----12b14r==12-10-12b14---|
|-----------------|---------------------------|
|-----------------|---------------------------|
|-----------------|---------------------------|
|-----------------|---------------------------|
|-----------------|---------------------------|
|
| Q  +E  Q  E E E   E E  E    E  E  E  E    E
|-----------------|---------------------------|
|-----------------|---------------------------|
|-----------------|---------------------------|
|-7--(7)S5--------|-----------5--5--4--4------|
|-5--(5)S3--3-3-3-|-3-3--3----3--3--2--2------|
|-----------------|---------------------------|


 Out-Chorus
   H          H         W
|-12b14---------------|-----------------|
|---------------------|-----------------|
|---------------------|-----------------|
|---------------------|-----------------|
|---------------------|-----------------|
|---------------------|-----------------|
|
|  E    E E E E E E E   E E E E E E E E
|---------------------|-----------------|
|---------------------|-----------------|
|---------------------|-----------------|
|---------------------|-------------2-2-|
|---------------------|---------5-5-0-0-|
|--0----0-0-0-0-0-0-0-|-0-0-0-0-3-3-----|


                                         ~~
  Q   Q     E  E  E  E    E  E  E     E  H
|----------15-12-------|-------------------------|
|----------------15-12-|-------------------------|
|----------------------|-14-12-12b14r12-12-------|
|----------------------|-------------------------|
|----------------------|-------------------------|
|----------------------|-------------------------|
|
| Q  +E  Q     E  E  E    E  E  E     E  E E E E
|----------------------|-------------------------|
|----------------------|-------------------------|
|----------------------|-------------------------|
|-7--(7)S5-------------|--------------5--5-4-4---|
|-5--(5)S3-----3--3--3-|--3--3--3-----3--3-2-2---|
|----------------------|-------------------------|


  Gtrs I, II
  E E E E E E E E   E E E H    +E    E E E E E E E E   E E E H    +E
|-----------------|----------------|-----------------|----------------|
|-----5-----------|----------------|-----5-----------|-------3----(3)-|
|-----4-----------|-5-----5----(5)-|-----4-----------|-5-----2----(2)-|
|-----------5-----|-4-----5----(5)-|-----------5-----|-4-----0----(0)-|
|-----------------|----------------|-----------------|----------------|
|-0-0---0-0---0-0-|---0-0----------|-0-0---0-0---0-0-|---0-0----------|


                                                         1.
    Gtr I
    H      E   Q.     H      E   Q.     H      E   Q.      Q   Q.    Q.
||-----------/10----|----------/12----|----------/10----|------8----10------||
||o----------/10----|----------/12----|----------/10----|------8----10-----o||
||------------------|-----------------|-----------------|-------------------||
||------------------|-----------------|-----------------|-------------------||
||o-----------------|-----------------|-----------------|------------------o||
||------------------|-----------------|-----------------|-------------------||
|
|   Gtr II
|   E Q  E E   Q.     E Q  E E   Q.     E Q  E E   Q.     +Q   Q.    Q.
||------------------|-----------------|-----------------|-------------------||
||o------------3----|------------5----|------------3----|-(3)--------3-----o||
||-------------2----|------------4----|------------2----|-(2)--5-----2------||
||--2-2--------0----|-2-2--------2----|-2-2--------0----|-(0)--5-----0------||
||o-2-2-------------|-2-2-------------|-2-2-------------|------3-----------o||
||--0-0--0-0--------|-0-0--0-0--------|-0-0--0-0--------|-------------------||


  2.
  Q  Q.   E Q     W
|----8---------|--------*|
|----8---------|--------*|
|--------------|--------*|
|---------2-2--|--------*|
|---------2-2--|--------*|
|---------0-0--|--------*|
|
| Q  Q.   E Q    +W
|--------------|--------*|
|-3------------|--------*|
|-2--5---------|--------*|
|-0--5----2-2--|-(2)----*|
|----3----2-2--|-(2)----*|
|---------0-0--|-(0)----*|
Добавлено: 27.04.2012
Другие материалы по этой песне:

Страница создана 22.03.2012
http://primanota.ru/def-leppard/comin-under-fire-chords.htm
Привет, Гость.
Предлагаем пройти революционный курс по гитаре.
Подарок от PrimaNota.Ru, забирай!