PrimaNota.ru - самый крупный в мире бесплатный архив песенных текстов, аккордов, табулатур и нот


Def Leppard - Bringing On The Heartbreak - аккорды и текст, видео

Регистрация Запомнить меня
Войти через:  Facebook Google Twitter Vk Yandex Mail.ru

Def Leppard - Bringing On The Heartbreak - аккорды и текст, видео

Печатать
Просмотров: 279
Bringing On The Heartbreak
Def Leppard
|-------------3-------|
   --------5-----------4-----|----------2-----2----|
   -----2-----2-----2-----2--|---------------------|
   --0-----------------------|---------------------|
   --------------3-----------|--3--31-------------|

   -----------|--1---------------------0-----------|
   --3--------|-----3-----3---------3-----3--------|
   -----2-----|--------3-----3-/-4-----------------|
   --------0--|------------------------------------|
   -----------|------------------------------------|
   -----------|------------------------------------|


Bryan Patrick Wallis
Добавлено: 28.07.2012
Другие материалы по этой песне:

Страница создана 19.04.2012
http://primanota.ru/def-leppard/bringing-on-the-heartbreak-chords.htm
Привет, Гость.
Предлагаем пройти революционный курс по гитаре.
Подарок от PrimaNota.Ru, забирай!