PrimaNota.ru - самый крупный в мире бесплатный архив песенных текстов, аккордов, табулатур и нот


Deep Purple - Whats Going On Here - таба, бас-таба, видео

Регистрация Запомнить меня
Войти через:  Facebook Google Twitter Vk Yandex Mail.ru

Deep Purple - Whats Going On Here - таба, бас-таба, видео

Печатать
Просмотров: 221
WHAT'S GOING ON HERE

As recorded by Deep Purple
(From the 1974 Album BURN)

Words and Music by Ritchie Blackmore, Glenn Hughes, Jon Lord, Ian Paice & David Coverdale

Transcribed by Slowhand


Gtr I (E A D G B E) - 'Ritchie Blackmore - Electric Guitar 1'
Gtr II (E A D G B E) - 'Ritchie Blackmore - Electric Guitar 2'
Gtr III (E A D G B E) - 'Ritchie Blackmore - Electric Guitar 3'


 Intro
  Q=128(8=s8)
            A5  B5                  E5
 4/4
  Gtr I
  H    Q  E E   H         +Q.       E
|-------------|-----------------------|
|-------------|-----------------------|
|-------------|-----------------------|
|-------------|---------------------9-|
|-----------7-|-9---------(9)-------7-|
|-----------5-|-7---------(7)---------|
|
| Gtrs II, III
| W             Q  E    E +Q   E    E
|-------------|-----------------------|
|-------------|-----------------------|
|-------------|----9b11-9-(9)--9b11-7-|
|-------------|-----------------------|
|-------------|-----------------------|
|-------------|-----------------------|


                 A5  B5                  E5
  +H     +Q.     E   H         +Q.       E
|------------------|-----------------------|
|------------------|-----------------------|
|------------------|-----------------------|
|-(9)----(9)-------|---------------------9-|
|-(7)----(7)-----7-|-9---------(9)-------7-|
|----------------5-|-7---------(7)---------|
|
|  ~~~
| +H      E  E Q     Q  E    E +Q   E    E
|------------------|-----------------------|
|------------------|-----------------------|
|-(7)--------------|----9b11-9-(9)--9b11-7-|
|---------9\-------|-----------------------|
|------------------|-----------------------|
|------------------|-----------------------|


                A5  B5                   G5
  +H     +Q.    E   H         +Q.         E        +W
|-----------------|-----------------------------|----------|
|-----------------|-----------------------------|----------|
|-----------------|-----------------------------|----------|
|-(9)----(9)------|-----------------------5-----|--(5)-----|
|-(7)----(7)----7-|-9---------(9)---------5-----|--(5)-----|
|---------------5-|-7---------(7)---------3-----|--(3)-----|
|
| Gtr II
|  ~~~                                              ~~~~~
| +H.         E E   Q  E    E +Q    E     E        +W
|-----------------|-----------------------------|----------|
|-----------------|-----------------------------|----------|
|-(7)-------------|----9b11-9-(9)---9b11--7-----|--(7)-----|
|---------------7-|-9---------------------------|----------|
|-----------------|-----------------------------|----------|
|-----------------|-----------------------------|----------|
|
| Gtr III
|  ~~~                                              ~~~~~
| +H.         E E   Q  E    E +Q    E     E        +W
|-----------------|-----------------------------|----------|
|-----------------|----------------10----10b12==|=(10)r----|
|-(7)-------------|----9b11-9-(9)---------------|----------|
|---------------7-|-9---------------------------|----------|
|-----------------|-----------------------------|----------|
|-----------------|-----------------------------|----------|


  F#5
  E     E   Q     H             W
|-----------------------------|--------------------------|
|-----------------------------|--------------------------|
|-----------------------------|--------------------------|
|-4---------------------------|--------------------------|
|-4---------------------------|--------------------------|
|-2---------------------------|--------------------------|
|
| Gtr II
| |---3---| |-3-| |-3-| |-3-|   |-3-| |-3-| |-3-|
| E   E   E E E E E E E E E E   E E E E E E E E E +Q
|---------2-------------------|--------------------------|
|-----2-----2-----------------|--------------------------|
|-4b6---------5-4-2---4-2---2-|-2-----2---4-2---2-(2)b4--|
|-------------------4-----4---|---4-2---4-----4----------|
|-----------------------------|--------------------------|
|-----------------------------|--------------------------|


   1st - 3rd Verses
    $
    N.C.
     Q   Q  Q  Q    Q  Q  Q   a Q
||----------------|----------------|
||o---------------|----------------|
||----------------|----------------|
||-------9-----9--|----9-----12p9--|
||o---------------|----------------|
||----------------|----------------|
|
|   +H      H       W
||----------------|----------------|
||o---------------|----------------|
||--(2)-----------|----------------|
||----------------|----------------|
||o---------------|----------------|
||----------------|----------------|


  Q      Q      Q      Q        Q       Q      Q    Q
|-----------------------------|------------------------|
|-----------------------------|------------------------|
|-----------------------------|---------------------7--|
|--------9-------------7------|---------9--------------|
|-----------------------------|------------------------|
|-----------------------------|------------------------|
|
|                                                ~~
|                                       |-3--|
| E    E E    E E    E E    E   Q      +E  E E E Q.
|-----------------------------|------------------------|
|-----------------------------|------------------------|
|-9b11---9b11---9b11---9b11---|-9pb11r=(9)p7---9-7-----|
|-----------------------------|--------------9---------|
|-----------------------------|------------------------|
|-----------------------------|------------------------|


            |3|
  Q  Q  Q   E Q   Q  Q  Q  a Q
|---------------|---------------|
|---------------|---------------|
|---------------|---------------|
|----9-----12p9-|----9-----9p7--|
|---------------|---------------|
|---------------|---------------|
|
| W               W
|---------------|---------------|
|---------------|---------------|
|---------------|---------------|
|---------------|---------------|
|---------------|---------------|
|---------------|---------------|


  Q           Q  Q           Q    Q  Q  Q  a Q
|-------------------------------|-----------------|
|-------------------------------|-----------------|
|----------------------------7--|-----------------|
|-------------9-----------------|----9-----9p7----|
|-------------------------------|-----------------|
|-------------------------------|-----------------|
|
|                                       ~
| |----3----|    |----3----|
| E     +E  E Q  E     +E  E Q    Q  Q  H
|-------------------------------|-----------------|
|-------------------------------|-----------------|
|-9pb11r(9)p7----9pb11r(9)p7----|-7-----7---------|
|-------------9--------------9--|----9------------|
|-------------------------------|-----------------|
|-------------------------------|-----------------|


  Q  Q  Q  E E   Q  Q  Q  E E   Q  Q  Q  Q    Q  Q  Q  E E
|--------------|--------------|-------------|---------------|
|--------------|--------------|----8--------|----8----------|
|----7-----6-7-|----7-----6-7-|----7-----7--|----7-----6-7--|
|----------5-6-|----------5-6-|----------7--|----------5-6--|
|--------------|--------------|-------------|---------------|
|--------------|--------------|-------------|---------------|


  Q  Q  Q  Q    Q  a Q  Q  Q    Q      Q   Q  Q    Q    E  E Q  Q
|-------------|---------------|------------------|------------------|
|-------------|---------------|------------------|------------------|
|----------7--|---------------|--------7------7--|------------------|
|----9--------|----9p7-----9--|---------------7--|------7h=9----9---|
|-------------|---------------|------------------|------------------|
|-------------|---------------|------------------|------------------|
|
| Gtr II
|                                      ~~~           ~~~~~~
|                               |-3-|
| W             W               E E E +H      Q    E E +H       Q
|-------------|---------------|------------------|------------------|
|-------------|---------------|------------------|------------------|
|-------------|---------------|------------------|-7----------------|
|-------------|---------------|-7h9p7-(7)--------|---9-(9)----------|
|-------------|---------------|------------------|------------------|
|-------------|---------------|------------------|------------------|


                                           To Coda
  D5                               E5                              A5
  E E Q  E E Q     E E Q  E E Q    E E Q  E E Q      E E Q  +Q.    E
|----------------|---------------|-----------------|-----------------||
|----------------|---------------|-----------------|-----------------||
|-----7------7---|-----7------7--|-----9------9----|-----9--(9)------||
|-----7------7---|-----7------7--|-----9------9----|-----9--(9)------||
|-5-5----5-5-----|-5-5----5-5----|-7-7----7-7------|-7-7-----------7-||
|----------------|---------------|-----------------|---------------5-||
|
|            |3|                              |3|
| Q   Q  Q   E Q   Q   H      Q    Q   Q  Q   E Q    Q   H       Q
|----------------|---------------|-----------------|-----------------||
|----------------|---------------|-----------------|-----------------||
|-----7------7p5-|-----7---------|-----9------9p7--|-----9-----------||
|----------------|---------------|-----------------|-----------------||
|----------------|---------------|-----------------|-----------------||
|----------------|---------------|-----------------|-----------------||


 Chorus
  B5                  E5                A5
  H         +Q.       E   +H     +Q.    E
|-----------------------|-----------------|
|-----------------------|-----------------|
|-----------------------|-----------------|
|---------------------9-|-(9)----(9)------|
|-9---------(9)-------7-|-(7)----(7)----7-|
|-7---------(7)---------|---------------5-|
|
| Gtrs II, III
|                          ~~~
| Q  E    E +Q   E    E   +H.         Q
|-----------------------|-----------------|
|-----------------------|-----------------|
|----9b11-9-(9)--9b11-7-|-(7)-------------|
|-----------------------|-----------------|
|-----------------------|-----------------|
|-----------------------|-----------------|


  B5                  E5                A5
  H         +Q.       E   +H     +Q.    E
|-----------------------|------------------|
|-----------------------|------------------|
|-----------------------|------------------|
|---------------------9-|-(9)----(9)-------|
|-9---------(9)-------7-|-(7)----(7)----7--|
|-7---------(7)---------|---------------5--|
|
|                          ~~~
| Q  E    E +Q   E    E   +H.         Q
|-----------------------|------------------|
|-----------------------|------------------|
|----9b11-9-(9)--9b11-7-|-(7)--------------|
|-----------------------|------------------|
|-----------------------|------------------|
|-----------------------|------------------|


  B5                   G5
  H         +Q.         E        +W
|-----------------------------|--------------|
|-----------------------------|--------------|
|-----------------------------|--------------|
|-----------------------5-----|--(5)---------|
|-9---------(9)---------5-----|--(5)---------|
|-7---------(7)---------3-----|--(3)---------|
|
| Gtr II
|                                 ~~~~~
| Q  E    E +Q    E     E        +W
|-----------------------------|--------------|
|-----------------------------|--------------|
|----9b11-9-(9)---9b11--7-----|--(7)---------|
|-----------------------------|--------------|
|-----------------------------|--------------|
|-----------------------------|--------------|
|
| Gtr III
|                                 ~~~~~
| Q  E    E +Q    E     E        +W
|-----------------------------|--------------|
|----------------10----10b12==|=(10)r--------|
|----9b11-9-(9)---------------|--------------|
|-----------------------------|--------------|
|-----------------------------|--------------|
|-----------------------------|--------------|


 1.
  F#5
  E       E   Q         H             W
|-----------------------------------|----------------------||
|-----------------------------------|---------------------o||
|-----------------------------------|----------------------||
|-4---------------------------------|----------------------||
|-4---------------------------------|---------------------o||
|-2---------------------------------|----------------------||
|
| |----3----| |---3---|
| E   +E    E E   +E  E E E S S S S   E Q.     +Q   +Q
|-----------------------2-----------|----------------------||
|-----------5---------2---2---------|---------------------o||
|-4b6-(4)-----4b6-(4)-------5p4p2---|-4-2b4====(2)r=(2)----||
|---------------------------------4-|----------------------||
|-----------------------------------|---------------------o||
|-----------------------------------|----------------------||
|
| W                                   W
|-----------------------------------|----------------------||
|-----------------------------------|---------------------o||
|-----------------------------------|----------------------||
|-----------------------------------|----------------------||
|-----------------------------------|---------------------o||
|-----------------------------------|----------------------||


                                    Guitar Solo
  2.
  F#5                                N.C.
  Gtr I
  E E Q   H        W                  Q    Q     Q  Q
|----------------|----------------||-------------------|
|----------------|----------------||-------------------|
|----------------|----------------||-------------------|
|-4--------------|----------------||-------9--------9--|
|-4--------------|----------------||-------------------|
|-2--------------|----------------||-------------------|
|
| Gtr II
| Q   E E Q  E E   Q  Q  H           +Q    Q     Q  Q
|----------------|----------------||-------------------|
|-7-------7------|-7--------------||-------------------|
|-----9------9---|-------9b11=====||=(9)r--9b11--7-----|
|----------------|----------------||----------------9--|
|----------------|----------------||-------------------|
|----------------|----------------||-------------------|


                                     |---3----|                   |-3-|
  Q   Q  Q    Q     Q  Q      Q      E    E   E   Q         Q  Q  E E E
|-----------------|-----------------------------|-----------------------|
|-----------------|-----------------------------|-----------------------|
|-----------------|-----------------------------|-----------------------|
|-----9-------9---|----9-------------9p===7h==9-|-----------9-----9p7h9-|
|-----------------|-----------------------------|-----------------------|
|-----------------|-----------------------------|-----------------------|
|
|        |3|                                      |---3---|
| E E Q  E Q +Q     Q  E    E E    E E      E     E     E E Q  H
|-----------------|-----------------------------|-----------------------|
|-----------------|-----------------------------|-----------------------|
|--------7--------|----9b11---9b11---9b11-------|-9pb11p7---7-----------|
|-7---9----9-(9)--|-0---------------------------|---------9----9--------|
|-----------------|-----------------------------|-----------------------|
|-----------------|-----------------------------|-----------------------|


                    |-3-|
  Q   Q     Q       E E E   Q        Q     Q        Q
|-------------------------|-------------------------------|
|-------------------------|-------------------------------|
|-------------------------|-------------------------7-----|
|-----9-------------9p7h9-|----------9--------------------|
|-------------------------|-------------------------------|
|-------------------------|-------------------------------|
|
|     |-3-| |--3--| |-3-|   |--3---| |-3-| |--3---| |-3-|
| e e E E E E   E E E E E   E    E E E E E E    E E E E E
|-------------------------|-------------------------------|
|-------------------------|-------------------------------|
|---9-7-9-9-7b9-7---9-7-9-|-9b11-7---9-7-9-9b11-7---9-6-9-|
|-----------------9-------|--------9--------------9-------|
|-9-----------------------|-------------------------------|
|-------------------------|-------------------------------|


                          |--3--|
  Q        Q       Q      E E   E
|----------------------------------|
|----------------------------------|
|----------------------------------|
|----------9--------------9p7h==9--|
|----------------------------------|
|----------------------------------|
|
|          |--3--| |-3--|
| E E     +E   E E E  E E E   E
|----------------7-----------------|
|--------------7---7---------------|
|---9b11==(9)r-------10-9-7---9----|
|----------------------------------|
|----------------------------------|
|----------------------------------|


                       |3|
  Q     Q           Q  E Q     Q     E   E    Q   Q     Q     E   E    Q   Q
|----------------------------|------------------------|------------------------|
|----------------------------|--------------------8---|--------------------8---|
|----------------------------|-------6s==7--------7---|-------6s==7--------7---|
|-------9--------------9p7---|-------5s==6------------|-------5s==6------------|
|----------------------------|------------------------|------------------------|
|----------------------------|------------------------|------------------------|
|
| |-3-| |----3----|            |-3-| |--3--|            |-3-| |--3--|
| E E E S     S E E Q  e   e   E E E E E   E +Q   E E   E E E E E   E +Q   E E
|----------------------------|------------------------|------------------------|
|----------------------------|------------------------|------------------------|
|-7---7-9pb11p7--------------|-9---7---6---4-(4)------|-9---7---6---4-(4)------|
|---9-----------9-7-9------6-|---6---6------------6-6-|---6---6------------6-6-|
|----------------------5-----|------------------------|------------------------|
|----------------------------|------------------------|------------------------|


  Q     E   E   Q     Q       Q     E   E   Q     Q
|---------------------------|---------------------------|
|---------------------8-----|---------------------------|
|-------6-------------7-----|---------------------------|
|-----------5---------------|---------------------------|
|---------------------------|-------5---7---------5-----|
|---------------------------|---------------------------|
|
| |-3-| |--3--| |-3-| |-3-|   |-3-| |--3--| |-3-| |-3-|
| E E E E E   E E E E E E E   E E E E E   E E E E E E E
|---------------------------|---------------------------|
|---------------------------|---------------------------|
|-9---7---6---4---4---6---9-|---7---6-----4---6---9---7-|
|---6---6-------6---6---6---|-6---6---6-----6---6---6---|
|---------------------------|---------------------------|
|---------------------------|---------------------------|


                                           |3|
  Q     Q      Q   Q     Q     Q     Q     E Q     Q  Q   Q  Q
|----------------------|-------------------------|---------------|
|----------------------|-------------------------|---------------|
|------------------7---|-------------------------|-----------7---|
|-------9----------7---|-------9-----------9p7---|----9------7---|
|----------------------|-------------------------|---------------|
|----------------------|-------------------------|---------------|
|
| |-3-| |-3-|                        |-3-|
| E E E E E E +Q   E E   Q     Q     E E E E   E   Q  E E Q  E E
|----------------------|-------------------------|---------------|
|----------------------|-------------------------|---------------|
|-6-6---4---4-(4)------|-9b11--9b11--9-7---9---7-|---------------|
|-----6---6--------0-0-|-----------------9-------|-9--7---9--7---|
|----------------------|-------------------------|---------------|
|----------------------|-------------------------|---------------|


  Q  Q      Q   Q    Q           Q  Q        Q     E   E   E E +Q   E E
|------------------|-----------------------------|----------------------|
|------------------|-----------------------------|----------------------|
|----9----------7--|-------------9-----------7---|-7-------7-7-(7)--7---|
|----9----------7--|-------------9-----------7---|-7-------7-7-(7)--7---|
|------------------|-----------------------------|----------------------|
|------------------|-----------------------------|----------------------|
|
|    |-3-|           |----3----|    |--3---|
| Q  E E E +Q   Q    E    +E   E Q  E    E E E E   S S S S E E +Q   Q
|------------------|-----------------------------|----------------------|
|------------------|----------10-----------------|----------------------|
|--------7-(7)-----|-9b11-(9)-------9b11-7---9---|-7h9p7---9-7-(7)------|
|-9--7-9-----------|-----------------------9---9-|-------9--------------|
|------------------|-----------------------------|----------------------|
|------------------|-----------------------------|----------------------|


  E5                                                        A5
   E    E  Q       E    E  Q         E    E E  E      +Q.   E
|---------------------------------|---------------------------||
|---------------------------------|---------------------------||
|----------9---------------9------|---------9--9------(9)-----||
|----------9---------------9------|---------9--9------(9)-----||
|---------------------------------|-------------------------7-||
|--0----0----------0----0---------|--0----0-----------------5-||
|
|                                                             Gt
|  E    E  E    E  E    E  E    E    Q.        E      +H
|---------------------------------|---------------------------||
|-12------12------12------12------|-12------------------------||
|-11b13---11b13---11b13---11b13---|-11b13-----11pb13r(11)-----||
|---------------------------------|---------------------------||
|---------------------------------|---------------------------||
|---------------------------------|---------------------------||


 Interlude
  B5                  E5                A5
  H         +Q.       E   +H     +Q.    E
|-----------------------|------------------|
|-----------------------|------------------|
|-----------------------|------------------|
|---------------------9-|-(9)----(9)-------|
|-9---------(9)-------7-|-(7)----(7)----7--|
|-7---------(7)---------|---------------5--|
|
|rs II, III
|                          ~~~
| Q  E    E +Q   E    E   +H.         Q
|-----------------------|------------------|
|-----------------------|------------------|
|----9b11-9-(9)--9b11-7-|-(7)--------------|
|-9---------------------|------------------|
|-----------------------|------------------|
|-----------------------|------------------|


  B5                  E5                A5
  H         +Q.       E   +H     +Q.    E
|-----------------------|-----------------|
|-----------------------|-----------------|
|-----------------------|-----------------|
|---------------------9-|-(9)----(9)------|
|-9---------(9)-------7-|-(7)----(7)----7-|
|-7---------(7)---------|---------------5-|
|
| Gtr II
|                          ~~~
| Q  E    E +Q   E    E   +H      Q   E E
|-----------------------|-----------------|
|-----------------------|-----------------|
|----9b11-9-(9)--9b11-7-|-(7)-------------|
|-9---------------------|---------9\----7-|
|-----------------------|-----------------|
|-----------------------|-----------------|
|
| Gtr III
|                          ~~~
| Q  E    E +Q   E    E   +H      Q   E E
|-----------------------|-----------------|
|-----------------------|-----------------|
|----9b11-9-(9)--9b11-7-|-(7)-------------|
|-9---------------------|---------9\----7-|
|-----------------------|-----------------|
|-----------------------|-----------------|


  B5                   G5
  H         +Q.         E        +W
|-----------------------------|----------|
|-----------------------------|----------|
|-----------------------------|----------|
|-----------------------5-----|--(5)-----|
|-9---------(9)---------5-----|--(5)-----|
|-7---------(7)---------3-----|--(3)-----|
|
|                                 ~~~~~
| Q  E    E +Q    E     E        +W
|-----------------------------|----------|
|-----------------------------|----------|
|----9b11-9-(9)---9b11--7-----|--(7)-----|
|-9---------------------------|----------|
|-----------------------------|----------|
|-----------------------------|----------|
|
|                                 ~~~~~
| Q  E    E +Q    E     E        +W
|-----------------------------|----------|
|----------------10----10b12==|=(10)r----|
|----9b11-9-(9)---------------|----------|
|-9---------------------------|----------|
|-----------------------------|----------|
|-----------------------------|----------|


                           Piano Solo
  F#5                       N.C.
  Gtr I
  E E Q  H      W           Q  Q  Q  Q    Q  Q  Q  Q
|-------------|----------||-------------|--------------|
|-------------|----------||-------------|----------7---|
|-------------|----------||-------------|----------7---|
|-4-----------|----------||----9-----9--|----9---------|
|-4-----------|----------||-------------|--------------|
|-2-----------|----------||-------------|--------------|


  Q  Q  Q  a Q    Q  Q  Q  Q    Q  Q  Q  a Q    Q  Q  Q  Q
|---------------|-------------|---------------|--------------|
|---------------|-------------|---------------|--------------|
|---------------|----------7--|---------------|----------7---|
|----9-----9p7--|----9-----7--|----9-----9p7--|----9-----7---|
|---------------|-------------|---------------|--------------|
|---------------|-------------|---------------|--------------|


  Q  Q  Q  Q    Q  Q  Q  Q    Q  E E Q  Q    Q  E E Q  Q
|-------------|-------------|--------------|---------------|
|-------------|-------------|-----------8--|-----------8---|
|----------7--|----------7--|----6s7----7--|----6s7----7---|
|----9-----7--|----9-----7--|----5s6-------|----5s6--------|
|-------------|-------------|--------------|---------------|
|-------------|-------------|--------------|---------------|


  Q  E E Q  Q    Q  E E Q  Q    Q  Q  Q  a Q    Q  Q  Q  Q
|--------------|--------------|---------------|-------------|
|-----------8--|-----------8--|---------------|-------------|
|----6s7----7--|----6s7----7--|---------------|----------7--|
|----5s6-------|----5s6-------|----9-----9p7--|----9-----7--|
|--------------|--------------|---------------|-------------|
|--------------|--------------|---------------|-------------|


  Q  Q  Q  S S S S   Q  Q  Q  Q    Q  Q  Q  Q    Q  Q  Q  Q
|------------------|-------------|-------------|--------------|
|------------------|-------------|-------------|--------------|
|------------------|-------------|----7-----7--|----7-----0---|
|----9-----9p7h9p7-|----9-----9--|----7-----7--|----7---------|
|------------------|-------------|-------------|--------------|
|------------------|-------------|-------------|--------------|


                                 Interlude
                             A5   B5                  E5                A5
  Q  Q  Q  Q    Q  Q  Q  a E E    H         +Q.       E   +H     +Q.    E
|-------------|----------------||-----------------------|-----------------|
|-------------|----------------||-----------------------|-----------------|
|----9-----9--|----9-----------||-----------------------|-----------------|
|----9-----9--|----9-----9p7---||---------------------9-|-(9)----(9)------|
|-------------|--------------7-||-9---------(9)-------7-|-(7)----(7)----7-|
|-------------|--------------5-||-7---------(7)---------|---------------5-|
|
| Gtrs II, III
|                                                          ~~~
| W             W                 Q  E    E +Q   E    E   +H.         Q
|-------------|----------------||-----------------------|-----------------|
|-------------|----------------||-----------------------|-----------------|
|-------------|----------------||----9b11-9-(9)--9b11-7-|-(7)-------------|
|-------------|----------------||-----------------------|-----------------|
|-------------|----------------||-----------------------|-----------------|
|-------------|----------------||-----------------------|-----------------|


  B5                  E5                A5
  H         +Q.       E   +H     +Q.    E
|-----------------------|-----------------|
|-----------------------|-----------------|
|-----------------------|-----------------|
|---------------------9-|-(9)----(9)------|
|-9---------(9)-------7-|-(7)----(7)----7-|
|-7---------(7)---------|---------------5-|
|
| Gtr II
|                          ~~~
| Q  E    E +Q   E    E   +H.         Q
|-----------------------|-----------------|
|-----------------------|-----------------|
|----9b11-9-(9)--9b11-7-|-(7)-------------|
|-----------------------|-----------------|
|-----------------------|-----------------|
|-----------------------|-----------------|
|
| Gtr III
|                          ~~~
| Q  E    E +Q   E    E   +H.         Q
|-----------------------|-----------------|
|-----------------------|-----------------|
|----9b11-9-(9)--9b11-7-|-(7)-------------|
|-----------------------|-----------------|
|-----------------------|-----------------|
|-----------------------|-----------------|


  B5                   G5
  H         +Q.         E        +W
|-----------------------------|----------|
|-----------------------------|----------|
|-----------------------------|----------|
|-----------------------5-----|--(5)-----|
|-9---------(9)---------5-----|--(5)-----|
|-7---------(7)---------3-----|--(3)-----|
|
|                                 ~~~~~
| Q  E    E +Q    E     E        +W
|-----------------------------|----------|
|-----------------------------|----------|
|----9b11-9-(9)---9b11--7-----|--(7)-----|
|-----------------------------|----------|
|-----------------------------|----------|
|-----------------------------|----------|
|
|                                 ~~~~~
| Q  E    E +Q    E     E        +W
|-----------------------------|----------|
|----------------10----10b12==|=(10)r----|
|----9b11-9-(9)---------------|----------|
|-----------------------------|----------|
|-----------------------------|----------|
|-----------------------------|----------|


  F#5
  E     E   Q     H
|-------------------------------|
|-------------------------------|
|-------------------------------|
|-4-----------------------------|
|-4-----------------------------|
|-2-----------------------------|
|
| Gtr II
| |---3---| |-3-| |-3-|   |-3-|
| E   E   E E E E E E E a E E E
|---------2---------------------|
|-----2-----2-------------------|
|-4b6---------5-4-2---2-4s2-----|
|-------------------4-------4-2-|
|-------------------------------|
|-------------------------------|


                D.S. al Coda &
                                E5
  W                             E E Q    E  E Q
|----------------------------||------------------|
|----------------------------||------------------|
|----------------------------||-----9---------9--|
|----------------------------||-----9---------9--|
|----------------------------||-7-7------7--7----|
|----------------------------||------------------|
|
| |-3-|   |-3-| |-3-| |-3-|
| E E E a E E E E E E E E E     Q   E E +Q    Q
|----------------------------||------------------|
|----------------------------||------------------|
|-2--------------------------||-------9-(9)------|
|---4-2-4s2---------------4--||------------------|
|-----------4-3-2---2-3h4----||------------------|
|-----------------5----------||------------------|


  N.C.
  |-3-| |-3-| |-3-| |-3-|   |-3-| |-3-| |-3-| |--3--|
  E E E E E E E E E E E E   E E E E E E E E E E E   E
|-------------------------|---------------------------|
|-------------------------|---------------------------|
|-------------------------|---------------------------|
|-7p5---7p5---7p5---7p5---|-7p5---7p5---7p5---7p5-----|
|-------------------------|---------------------------|
|-------------------------|---------------------------|
|
| |-3-| |-3-| |-3-| |-3-|   |-3-| |-3-| |-3-|
| E E E E E E E E E E E E   E E E E E E E E E E   E
|-------------------------|---------------------------|
|-------------------------|---------------------------|
|-7p5---7p5---7p5---7p5---|-7p5---7p5---7p5---7-------|
|-------------------------|-----------------7---------|
|-------------------------|---------------------------|
|-------------------------|---------------------------|


  |-3-| |-3-| |-3-| |-3-|
  E E E E E E E E E E E E
|---------------------------|
|---------------------------|
|-------------9p7---9p7-----|
|-9p7---9p7-----------------|
|---------------------------|
|---------------------------|
|
| |-3-| |-3-| |-3-| |-3-|
| E E E E E E E E E E E E
|---------------------------|
|---------------------------|
|-9p7---9p7---9p7---9p7-----|
|---------------------------|
|---------------------------|
|---------------------------|


                       Outro
                   A5   B5                  E5
  |--3---|
  E E    E Q  Q.   E    H         +Q.       E
|--------------------||-----------------------|
|--------------------||-----------------------|
|-9p7------9---------||-----------------------|
|--------------------||---------------------9-|
|------------------7-||-9---------(9)-------7-|
|-------------0----5-||-7---------(7)---------|
|
|                    Gtr II
| E   Q.      H         Q  E    E +Q   E    E
|--------------------||-----------------------|
|--------------------||-----------------------|
|-7h==9--------------||----9b11-9-(9)--9b11-7-|
|--------------------||-----------------------|
|--------------------||-----------------------|
|--------------------||-----------------------|
|
|                    Gtr III
| W                     Q  E    E +Q   E    E
|--------------------||-----------------------|
|--------------------||-----------------------|
|--------------------||----9b11-9-(9)--9b11-7-|
|--------------------||-----------------------|
|--------------------||-----------------------|
|--------------------||-----------------------|


                A5  B5                  E5
  +H     +Q.    E   H         +Q.       E
|-----------------|------------------------|
|-----------------|------------------------|
|-----------------|------------------------|
|-(9)----(9)------|---------------------9--|
|-(7)----(7)----7-|-9---------(9)-------7--|
|---------------5-|-7---------(7)----------|
|
|  ~~~
| +H.         Q     Q  E    E +Q   E    E
|-----------------|------------------------|
|-----------------|------------------------|
|-(7)-------------|----9b11-9-(9)--9b11-7--|
|-----------------|------------------------|
|-----------------|------------------------|
|-----------------|------------------------|
|
|  ~~~
| +H.         Q     Q  E    E +Q   E    E
|-----------------|------------------------|
|-----------------|------------------------|
|-(7)-------------|----9b11-9-(9)--9b11-7--|
|-----------------|------------------------|
|-----------------|------------------------|
|-----------------|------------------------|


                A5  B5                   G5
  +H     +Q.    E   H         +Q.         E
|-----------------|-----------------------------|
|-----------------|-----------------------------|
|-----------------|-----------------------------|
|-(9)----(9)------|-----------------------5-----|
|-(7)----(7)----7-|-9---------(9)---------5-----|
|---------------5-|-7---------(7)---------3-----|
|
|  ~~~
| +H.         Q     Q  E    E +Q    E     E
|-----------------|-----------------------------|
|-----------------|-----------------------------|
|-(7)-------------|----9b11-9-(9)---9b11--7-----|
|-----------------|-----------------------------|
|-----------------|-----------------------------|
|-----------------|-----------------------------|
|
|  ~~~
| +H.         Q     Q  E    E +Q    E     E
|-----------------|-----------------------------|
|-----------------|----------------10----10b12==|
|-(7)-------------|----9b11-9-(9)---------------|
|-----------------|-----------------------------|
|-----------------|-----------------------------|
|-----------------|-----------------------------|


                 F#5
   +W            E     E   Q   H
|--------------|-----------------------|
|--------------|-----------------------|
|--------------|-----------------------|
|--(5)---------|-4---------------------|
|--(5)---------|-4---------------------|
|--(3)---------|-2---------------------|
|
|   ~~~~~
|                |---3---|
|  +W            E   E   E E E Q  E E
|--------------|-----------------------|
|--------------|-----------------------|
|--(7)---------|-4b6-2-----4---2-------|
|--------------|---------4--------4----|
|--------------|-----------------------|
|--------------|-----------------------|
|
|   ~~~~~
|  +W            W
|--------------|-----------------------|
|-(10)r--------|-----------------------|
|--------------|-----------------------|
|--------------|-----------------------|
|--------------|-----------------------|
|--------------|-----------------------|


  N.C.
  Gtr II                        Gtrs I, II
  |--3--| |-3-| |-3-|   |-3-|   |-3-|    |-3-|
  E   E E E E E E E E a E E E   E E E Q  E E E Q
|-------2---------------------|-------------------|
|-----2---2-------------------|-------------------|
|-4b6-------5-4-2---2-4s2-----|-------7--------9--|
|-----------------4-------4-4-|-9-7-9----9-7-9----|
|-----------------------------|-------------------|
|-----------------------------|-------------------|


                                                      B5
  Gtr I
  |-3-|    |-3-|
  E E E Q  E E E Q    E Q.   +H       E Q.   +H       W               +W
|-------------------|---------------|---------------|---------------|--------*|
|-------------------|---------------|---------------|---------------|--------*|
|-------7--------9--|---------------|---------------|---------------|--------*|
|-9-7-9----9-7-9----|-9-7----(7)----|---------------|---------------|--------*|
|-------------------|---------------|-7-5----(5)----|-9-------------|-(9)----*|
|-------------------|---------------|---------------|-7-------------|-(7)----*|
|
| Gtr II
|                             ~~~             ~~~
| |-3-|    |-3-|
| E E E Q  E E E Q    E Q.   +H       E Q.   +H       E Q.   +H       +W
|-------------------|---------------|---------------|---------------|--------*|
|-------------------|---------------|---------------|-3-------------|--------*|
|-------7--------9--|-7p6----(6)----|-4-2----(2)----|---4----(4)----|-(4)----*|
|-9-7-9----9-7-9----|---------------|---------------|---------------|--------*|
|-------------------|---------------|---------------|---------------|--------*|
|-------------------|---------------|---------------|---------------|--------*|


Duration Legend
---------------
W - whole; H - half; Q - quarter; E - 8th; S - 16th; T - 32nd; X - 64th; a - acciaccatura
+ - note tied to previous; . - note dotted; .. - note double dotted
Uncapitalized letters represent notes that are staccato (1/2 duration)
Irregular groupings are notated above the duration line
Duration letters will always appear directly above the note/fret number it represents the
duration for.  Duration letters with no fret number below them represent rests.  Multi-
bar rests are notated in the form Wxn, where n is the number of bars to rest for.  Low
melody durations appear below the staff

Tablature Legend
----------------
 h   - hammer-on
 p   - pull-off
 b   - bend
 pb  - pre-bend
 r   - bend release (if no number after the r, then release immediately)
 /\  - slide into or out of (from/to "nowhere")
 s   - legato slide
 S   - shift slide
  - natural harmonic
[n]  - artificial harmonic
n(n) - tapped harmonic
 ~   - vibrato
 tr  - trill
 T   - tap
 TP  - trem. picking
 PM  - palm muting
\n/  - tremolo bar dip; n = amount to dip
 \n  - tremolo bar down
 n/  - tremolo bar up
/n\  - tremolo bar inverted dip
 =   - hold bend; also acts as connecting device for hammers/pulls
 <>  - volume swell (louder/softer)
 x   - on rhythm slash represents muted slash
 o   - on rhythm slash represents single note slash

Misc Legend
-----------
 |  - bar
||  - double bar
||o - repeat start
o|| - repeat end
*|  - double bar (ending)
 :  - bar (freetime)
 $  - Segno
 &  - Coda
Tempo markers -  = BPM(8/16=s8/s16), where s8 = swing 8ths, s16 = swing 16ths
Добавлено: 09.11.2015
Другие материалы по этой песне:

Страница создана 21.02.2012
http://primanota.ru/deep-purple/whats-going-on-here-chords.htm
Привет, Гость.
Предлагаем пройти революционный курс по гитаре.
Подарок от PrimaNota.Ru, забирай!