PrimaNota.ru - самый крупный в мире бесплатный архив песенных текстов, аккордов, табулатур и нот


Deep Purple - You Fool No One - текст песни, таба, бас-таба, видео

Регистрация Запомнить меня
Войти через:  Facebook Google Twitter Vk Yandex Mail.ru

Deep Purple - You Fool No One - текст песни, таба, бас-таба, видео

Печатать
Просмотров: 229
YOU FOOL NO ONE

As recorded by Deep Purple
(From the 1974 Album BURN)

Words and Music by Ritchie Blackmore, David Coverdale, Jon Lord & Ian Paice

Transcribed by Slowhand


Gtr I (E A D G B E) - 'Ritchie Blackmore - Electric Guitar 1'
Gtr II (E A D G B E) - 'Ritchie Blackmore - Electric Guitar 2'


 Intro
  Q=134
  N.C.
 4/4
  Gtr I
  W          W           e e S S S S e e S S S S
|----------|----------|--------------------------|
|----------|----------|--------------8-----------|
|----------|----------|----9-7h9p7-----9-7h9p7---|
|----------|----------|------------9-----------9-|
|----------|----------|-/7-----------------------|
|----------|----------|--------------------------|


  e e S S S S e Q.     e e S S S S e e S S S S   e e S S S S E E   +Q
|--------------------|-------------------------|-------------------------|
|--------------------|-------------8-----------|-------------------------|
|---9-7h9p7-----9----|---9-7h9p7-----9-7h9p7---|---9-7-9-7-----7b8-(7)---|
|-----------9--------|-----------9-----------9-|-----------9-------------|
|-7-----------7------|-7-----------------------|-7-----------7-----------|
|--------------------|-------------------------|-------------------------|


   e e S S S S e e S S S S   e e S S S S e Q.     e e S S S S E   Q.
|--------------------------|--------------------|-----------------------|
|--------------8-----------|--------------------|-----------------------|
|----9-7h9p7-----9-7h9p7---|---9-7h9p7-----9----|-------------2b3-2-----|
|------------9-----------9-|-----------9--------|---2-0h2p0-------------|
|-/7-----------------------|-7-----------7------|-----------------------|
|--------------------------|--------------------|-0---------0-----------|


                                           D5
  a S S E S S S S S S S S S S S S   E E Q  H      +W
|---------------------------------|-------------|--------||
|-----3-5-------------------------|--------3----|-(3)----||
|-2s4-----3p2p0---0---------------|--------2----|-(2)----||
|---------------2---2p0---0-------|--------0----|-(0)----||
|-----------------------2---2p0---|-------------|--------||
|-------------------------------3-|-0-----------|--------||


   Chorus
    $
    N.C.
    E E S S S S E S S S S S S   E E S S S S E S S S E.
||----------------------------|------------------------|
||o---------------------------|------------------------|
||----------------------------|------------------------|
||----2-0h2p0---2-0---0h2p0---|---2-0h2p0---2-0--------|
||o-----------2-----2-------2-|-----------2-----2-0----|
||--0-------------------------|-0-------------------3--|


  E E S S S S E S S S S S S   E E S S S S E E Q
|---------------------------|--------------------|
|---------------------------|--------------------|
|---------------------------|--------------------|
|---2-0h2p0---2-0---0h2p0---|---2-0h2p0---2---0--|
|-----------2-----2-------2-|-----------2--------|
|-0-------------------------|-0------------------|


  E E S S S S E S S S S S S   E E S S S S E S S S E.
|---------------------------|------------------------|
|---------------------------|------------------------|
|---------------------------|------------------------|
|---2-0h2p0---2-0---0h2p0---|---2-0h2p0---2-0--------|
|-----------2-----2-------2-|-----------2-----2-0----|
|-0-------------------------|-0-------------------3--|


  E E S S S S E S S S S S S   E E S S S S E E Q
|---------------------------|--------------------|
|---------------------------|--------------------|
|---------------------------|--------------------|
|---2-0h2p0---2-0---0h2p0---|---2-0h2p0---2---0--|
|-----------2-----2-------2-|-----------2--------|
|-0-------------------------|-0------------------|


  E E S S S S E S S S S S S   E E S S S S E S S S E.
|---------------------------|------------------------|
|---------------------------|------------------------|
|---------------------------|------------------------|
|---2-0h2p0---2-0---0h2p0---|---2-0h2p0---2-0--------|
|-----------2-----2-------2-|-----------2-----2-0----|
|-0-------------------------|-0-------------------3--|


  E E S S S S E S S S S S S   E E S S S S E E Q
|---------------------------|--------------------|
|---------------------------|--------------------|
|---------------------------|--------------------|
|---2-0h2p0---2-0---0h2p0---|---2-0h2p0---2---0--|
|-----------2-----2-------2-|-----------2--------|
|-0-------------------------|-0------------------|


  E E S S S S E S S S S S S   E E S S S S E S S S E.
|---------------------------|------------------------|
|---------------------------|------------------------|
|---------------------------|------------------------|
|---2-0h2p0---2-0---0h2p0---|---2-0h2p0---2-0--------|
|-----------2-----2-------2-|-----------2-----2-0----|
|-0-------------------------|-0-------------------3--|


                                                       1st - 3rd Verses
                                                        N.C.
  E E S S S S E S S S S S S   E E S S S S E S S S E.    W
|---------------------------|------------------------||------|
|---------------------------|------------------------||------|
|---------------------------|------------------------||------|
|---2-0h2p0---2-0---0h2p0---|---2-0h2p0---2-0--------||------|
|-----------2-----2-------2-|-----------2-----2-0----||-0----|
|-0-------------------------|-0-------------------3--||------|


                              D5/A      A5/E G5/DE5
  E S S E E     E   S S E E   E S S E E Q  E E
|---------------------------|------------------|
|---------------------------|------------------|
|-7-7-7-7-------7---7-7-7---|-7-7-7-7----------|
|-9-9-9-9-------9---9-9-9---|-7-7-7-7---7--7-5-|
|---------------------------|-----------7--7-5-|
|---------------------------|------------------|
|
| Gtr II
|               ~~~~
| Q     E E    +H             W
|---------------------------|------------------|
|---------------------------|------------------|
|---------7b9==(7)r---------|------------------|
|---------------------------|------------------|
|---------------------------|------------------|
|---------------------------|------------------|


                                      A5
  E  S     S   E   E E  S     S E E     E   S S E E E S S E E
|-----------------------------------|---------------------------|
|-----------------------------------|---------------------------|
|-----------------------------------|---------------------------|
|-9--9-----9---9-----9--9-----9-9---|---------------------------|
|-7--7-----7---7-----7--7-----7-7---|---7---7-7-7---7-7-7-7-----|
|-----------------------------------|---5---5-5-5---5-5-5-5-----|
|
| E  S     S  +E   E E  Q.             +W
|-----------------------------------|---------------------------|
|---------12-(12)-15---15b17========|=(15)r---------------------|
|---14b16---------------------------|---------------------------|
|-----------------------------------|---------------------------|
|-----------------------------------|---------------------------|
|-----------------------------------|---------------------------|


                                                               To Coda
  N.C.                  D5/A                  C5/G                  B5
  E S S E E E S S E E   E S S E E E S S E E   E S S E E E S S E E   W
|---------------------|---------------------|---------------------|-------|
|---------------------|---------------------|---------------------|-------|
|-7-7-7-7---7-7-7-7---|-7-7-7-7---7-7-7-7---|-5-5-5-5---5-5-5-5---|-4-----|
|-9-9-9-9---9-9-9-9---|-7-7-7-7---7-7-7-7---|-5-5-5-5---5-5-5-5---|-4-----|
|---------------------|---------------------|---------------------|-2-----|
|-------------------0-|---------------------|---------------------|-------|


                                     Interlude
  1.                2.                Q=142
  N.C.               N.C.             N.C.
  W                  W                S S S S S S S S S S S S S S S S
|-----------------||---------------||----------------------------------|
|----------------o||---------------||----------------------------------|
|-----------------||---------------||----------------------------------|
|-----------------||---------------||-2p0---2p0---2p0---2p0---2p0------|
|----------------o||---------------||-----2-----2-----2-----2-----2----|
|-----------------||---------------||----------------------------------|
|
| Gtr II
|                      /
| E Q.    +H         E Q.   +H        W
|-----------------||---------------||----------------------------------|
|----------------o||---------------||----------------------------------|
|---2b4---(2)-----||---7----(7)----||----------------------------------|
|-----------------||---------------||----------------------------------|
|----------------o||---------------||----------------------------------|
|-----------------||---------------||----------------------------------|


  S S S S S S S S H
|----------------------|
|----------------------|
|----------------------|
|-2p0---2p0---2--------|
|-----2-----2----------|
|----------------------|


  S S S S S S S S S S S S S S S S   S S S S S S S S H
|---------------------------------|----------------------|
|---------------------------------|----------------------|
|-9p7---9p7---9p7---9p7---9p7-----|-9p7---9p7---9--------|
|-----9-----9-----9-----9-----9---|-----9-----9----------|
|---------------------------------|----------------------|
|---------------------------------|----------------------|


  S S S S S S S S S S S S S S S S   S S S S S S S S H
|---------------------------------|----------------------|
|---------------------------------|----------------------|
|-9p7---9p7---9p7---9p7---9p7-----|-9p7---9p7---9--------|
|-----9-----9-----9-----9-----9---|-----9-----9----------|
|---------------------------------|----------------------|
|---------------------------------|----------------------|


                                    Q=134
  S S S S S S S S S S S S S S S S   S S E     S S S S S S S E   S S S
|---------------------------------|-----------------------------------|
|---------------------------------|-----------------------------------|
|-9p7---9p7---9p7---9p7---9p7-----|---4---------5-----6-----7-------8-|
|-----9-----9-----9-----9-----9---|-----------------------------------|
|---------------------------------|-2---------3-----4-----5-----------|
|---------------------------------|-----------------------------------|
|
| Gtr II
| W                                 S S S  S  S S S S S S S S S S E
|---------------------------------|-----------------------------------|
|---------------------------------|-----------------------------------|
|---------------------------------|---------------6-6---7-7-----8-----|
|---------------------------------|-9-9---10-10-----------------------|
|---------------------------------|-----------------------------------|
|---------------------------------|-----------------------------------|


  ~
  H     S  S  S  S  Q     +E   Q.       +H
|----------------------|------------------------||
|----------------------|------15b17====(15)r----||
|-9----12h14p12----12--|-(12)-------------------||
|---------------14-----|------------------------||
|----------------------|------------------------||
|----------------------|------------------------||
|
| H     H                  W
|----------------------|------------------------||
|----------------------|------------------------||
|-9--------------------|------------------------||
|----------------------|------------------------||
|----------------------|------------------------||
|----------------------|------------------------||


 Guitar Solo
  N.C.
   W             E  Q      E  E  E     S     +S   E
|--------------|-------------------------------------|
|-15b17--------|---------------------------------15--|
|--------------|---14b16--12-14-14b16-14b16-(14)-----|
|--------------|-------------------------------------|
|--------------|-------------------------------------|
|--------------|-------------------------------------|
|
|  W             W
|--------------|-------------------------------------|
|--------------|-------------------------------------|
|--------------|-------------------------------------|
|--------------|-------------------------------------|
|--------------|-------------------------------------|
|--------------|-------------------------------------|


                                 ~~~~~~~~~~~
   E.     +S   E  E  +Q.    E    H     +E   E E E
|-----------------------------|-------------------|
|-----------------------------|-------------------|
|-14pb16r(14)-12--------------|---------------7-9-|
|----------------14-(14)---12-|-14----(14)\-9-----|
|-----------------------------|-------------------|
|-----------------------------|-------------------|


                                    ~
  Q.     E     +E   E     +E  S S   H    E  E E E
|---------------------------------|---------------|
|---------------------------------|---------------|
|-9b10---9b10==(9)r-9pb10r(9)-7h9p|=7----0----7-9-|
|---------------------------------|--------/9-----|
|---------------------------------|---------------|
|---------------------------------|---------------|


  Q      +S  S S S Q  E E   Q     +S  S S S Q.   E
|-------------------------|------------------------|
|-------------------------|------------------------|
|-9pb10r=(9)p7h9p7-6--4-6-|-6pb7r=(6)p4h6p4-4----2-|
|-------------------------|------------------------|
|-------------------------|------------------------|
|-------------------------|------------------------|


                             ~~~~~~~~~
                 |-3-|
  Q    Q    E    S S S E E   H    +E  E E E
|--------------------------|----------------|
|--------------------------|--------------3-|
|-4b5--4b5--4pb5p2h4p2s1-2-|-4----(4)-2-4---|
|--------------------------|----------------|
|--------------------------|----------------|
|--------------------------|----------------|


                              ~~~~~~~~~
  Q     +S  S E S S E +E  E   H    +E  E E E
|---------------------------|----------------|
|-3pb4r=(3)p2---------------|-2----(2)---2-3-|
|-------------4-2h4p2-(2)h4-|----------4-----|
|---------------------------|----------------|
|---------------------------|----------------|
|---------------------------|----------------|


  E.  S E E    +S  +S  E S    +S  E
|-----------------------------------|
|-5b7-5p3-5b7==(5)r(5)-3-5pb7r(5)-3-|
|-----------------------------------|
|-----------------------------------|
|-----------------------------------|
|-----------------------------------|


  E.   +S  E E    +S  S E a Q    Q    Q    Q      E  E
|------------------------------|---------------------------|
|-5pb7r(5)-3-5pb7r(5)p3---3h5--|-7b8--8b9--9b10--11-11b12==|
|-----------------------4------|---------------------------|
|------------------------------|---------------------------|
|------------------------------|---------------------------|
|------------------------------|---------------------------|


   +H      +E    S     +S   E  E    E     Q      S  S  E  Q.
|-----------------------------12-|--------------12----12---------|
|-(11)----(11)r------------12----|-15b17-15b17-----12----15b17---|
|---------------15b16-(15)-------|-------------------------------|
|--------------------------------|-------------------------------|
|--------------------------------|-------------------------------|
|--------------------------------|-------------------------------|


         |--3--|                           |--3--|
   E  E  E  E  E  H           E  Q      E  S  S  S  E  E  E
|-12----12-----------------|--------------------------------|
|----15----15p13-15b17\----|-15-15b17--15-13h15p13p12-------|
|--------------------------|--------------------------14-12-|
|--------------------------|--------------------------------|
|--------------------------|--------------------------------|
|--------------------------|--------------------------------|


                             ~~
   E     E      +E   +S   S  H
|---------------------------------|
|---------------------------------|
|-14b16-14b16==(14)r(14)p12-------|
|---------------------------14----|
|---------------------------------|
|---------------------------------|


                               ~~~~~~
  E E E. S S S Q  E   E. S S S E +Q.   E   Q  E E    +S  +S  E E E
|-------------------|--------------------|-------------------------|
|-------------------|--------------------|-------------------------|
|-7-7-7----7-7-7----|-7----7p6-----------|-------------------------|
|--------9--------9-|----9-----9-(9)-----|-5----7b9==(7)r(7)p5-7-5-|
|-------------------|------------------7-|-------------------------|
|-------------------|--------------------|-------------------------|


             ~~~
  S S E E E +H
|------------------|
|------------------|
|-----7-9-9-(9)----|
|-7h9--------------|
|------------------|
|------------------|


   S     +S   S  S     +S   S  S     +S   S  S  S     S  S  S     S  S
|------------12------------12------------12-12-------12-12-------12-------|
|-15b17-(15)----15b17-(15)----15b17-(15)-------15b17-------15b17----15b17-|
|-------------------------------------------------------------------------|
|-------------------------------------------------------------------------|
|-------------------------------------------------------------------------|
|-------------------------------------------------------------------------|


   S  S  S     S  S  S     S  S  S     S  S  S     S  S  S     S
|-12-12-------12-12-------12-12-------12-12-------12-12-------12-|
|-------15b17-------15b17-------15b17-------15b17-------15b17----|
|----------------------------------------------------------------|
|----------------------------------------------------------------|
|----------------------------------------------------------------|
|----------------------------------------------------------------|


   S  S     S  S  S     S  S  S     S  S  S     S  S  S     S  S
|-12-------12-12-------12-12-------12-12-------12-12-------12-12-|
|----15b17-------15b17-------15b17-------15b17-------15b17-------|
|----------------------------------------------------------------|
|----------------------------------------------------------------|
|----------------------------------------------------------------|
|----------------------------------------------------------------|


   S     S  S  S     S  S  S     S  S  S     S  S  S     S  E
|-------12-12-------12-12-------12-12-------12-12-------12-12-|
|-15b17-------15b17-------15b17-------15b17-------15b17-------|
|-------------------------------------------------------------|
|-------------------------------------------------------------|
|-------------------------------------------------------------|
|-------------------------------------------------------------|


                       |--3--|
   E E  Q       +Q     E  E  E
|-12---12b14===(12)r--13-12-11-|
|------------------------------|
|------------------------------|
|------------------------------|
|------------------------------|
|------------------------------|


   |------6------|                 |-----5-----|  |-----5-----|
   S S  S  S  S  S  S  S  T  T  S  S  S  S  S  S  S  S  S  S  S
|-10-0-12-------------------------------------------------------|
|---------13-12-11----10-11p10----------------------------------|
|------------------12----------12-10----12-10-------------------|
|------------------------------------12-------12-10----12-10----|
|---------------------------------------------------12-------12-|
|---------------------------------------------------------------|


   S  S  S  S  S  S  S  S  S  S  S  S  S  S  S  S
|--------------------------------------------------|
|--------------------------------------------------|
|--------------------------------------------------|
|-10-12-12-10----12-10----12-10----10-12-12-10-----|
|-------------12-------12-------12-------------12--|
|--------------------------------------------------|


   S  S  S  S  S  S  S  S  S  S  S  S  S  S  S  S
|-------------------------------------------------|
|-------------------------------------------------|
|----------10-------10-------10-12-12-10----10-12-|
|-10-11-12----12-12----12-12-------------12-------|
|-------------------------------------------------|
|-------------------------------------------------|


   S  S     S  S  S     +S   S  S     S  S  S  S  S  S  S  S
|-------------10------------10-------10-10-10-13p10----13p10-|
|----------10----13b15-(13)----13b15----------------13-------|
|-13-12b14---------------------------------------------------|
|------------------------------------------------------------|
|------------------------------------------------------------|
|------------------------------------------------------------|


   S  S  S  S  S  S  S  S  S  S  S  S  S  S  E
|----10-13p10----10-13p10----10-13p10----10----|
|-13----------13----------13----------13----13-|
|----------------------------------------------|
|----------------------------------------------|
|----------------------------------------------|
|----------------------------------------------|


                                      D.S. al Coda
          |--3--|  |--3--|
   Q      E  E  E  E  E  E  E  E   H        +H
|--------------------------------|-------------------||
|-13b15--14-13-12-11-------------|-------------------||
|--------------------13-12-11-10-|-9b10=====(9)r\----||
|--------------------------------|-------------------||
|--------------------------------|-------------------||
|--------------------------------|-------------------||


                            Outro
  &
  N.C.                       N.C.
                              ~~~~~
  E E   E E.  E.   +E  E     +W
|-------------------------||-------------------------------|
|-------------------------||-------------------------------|
|---4b5---4b5-4pb5r(4)p2--||-(2)b4-------------------------|
|-------------------------||-------------------------------|
|-------------------------||-------------------------------|
|-------------------------||-------------------------------|
|
| Gtr II
| W                           E    E S S S S E S S S S S S
|-------------------------||-------------------------------|
|-------------------------||-------------------------------|
|-------------------------||-------------------------------|
|-------------------------||-------2-0h2p0---2-0---0h2p0---|
|-------------------------||---------------2-----2-------2-|
|-------------------------||--0----------------------------|


  E Q        +E       +E.   +S  +E       +E
|--------------------------------------------|
|--------------------------------------------|
|---2pb4r====(2)b4====(2)r==(2)-(2)b4----(2)-|
|--------------------------------------------|
|--------------------------------------------|
|--------------------------------------------|
|
| E E    S S  S     S  E  S  S   S    E.
|--------------------------------------------|
|--------------------------------------------|
|--------------------------------------------|
|---2----0h2p=0--------2--0------------------|
|-------------------2--------2---0-----------|
|-0-----------------------------------3------|


  ~                                 ~~
  W                           E.  S H.
|---------------------------|----------------------|
|---------------------------|----------------------|
|-2-------------------------|-2p==0----------------|
|---------------------------|-------2--------------|
|---------------------------|----------------------|
|---------------------------|----------------------|
|
| E E S S S S E S S S S S S   E E   S S S S E E Q
|---------------------------|----------------------|
|---------------------------|----------------------|
|---------------------------|----------------------|
|---2-0h2p0---2-0---0h2p0---|---2---0h2p0---2---0--|
|-----------2-----2-------2-|-------------2--------|
|-0-------------------------|-0--------------------|


   E Q     E   E.  S +E     E     S  S E S +S E       +Q      +E     E
|-------------------------------|--------------------------------------|
|-------------------------------|--------------------------------------|
|--------------7h==9-(9)s==11---|-9h11p9s7-(7)9b11====(9)r====(9)----7-|
|----7-----9--------------------|--------------------------------------|
|-/9----------------------------|--------------------------------------|
|-------------------------------|--------------------------------------|
|
|  E E S S S S E S S  S  S  S S   E    E S  S S     S  E  S S  S  E.
|-------------------------------|--------------------------------------|
|-------------------------------|--------------------------------------|
|-------------------------------|--------------------------------------|
|----2-0h2p0---2-0----0h=2p=0---|------2-0h=2p0--------2--0------------|
|------------2-----2----------2-|-------------------2-------2--0-------|
|--0----------------------------|-0-------------------------------3----|


  ~~
  H.                  E    E      E     Q.             +Q     Q
|------------------------------|---------------------------------|
|------------------------------|---------------------------------|
|-9-----------------------12---|-14b16-14b16==========(14)r------|
|--------------------14--------|---------------------------------|
|------------------------------|---------------------------------|
|------------------------------|---------------------------------|
|
| E  E S S S S E S S  S S  S S    E     E     S S S S   E   E Q
|------------------------------|---------------------------------|
|------------------------------|---------------------------------|
|------------------------------|---------------------------------|
|----2-0h2p0---2-0----0h2p=0---|--------2-----0h2p0-----2-----0--|
|------------2-----2---------2-|--------------------2------------|
|-0----------------------------|--0------------------------------|


   E     E  E       E    Q.            S  S
|-------------------------------------------|
|-------12---------12-----------------12-12-|
|-14b16----14b16--------14b16---------------|
|-------------------------------------------|
|-------------------------------------------|
|-------------------------------------------|
|
|  E     E  S    S  S S  E    S S S S  S  S
|-------------------------------------------|
|-------------------------------------------|
|-------------------------------------------|
|--------2--0h===2p=0----2----0---0h2p=0----|
|---------------------2---------2---------2-|
|--0----------------------------------------|


   S  S      +E   +H              +E       S     S
|-12------------------------------------------------|
|----15b17==(15)-(15)------------(15)r----------12--|
|-----------------------------------------14b16-----|
|---------------------------------------------------|
|---------------------------------------------------|
|---------------------------------------------------|
|
|  E          E    S S S S E S S   S   E.
|---------------------------------------------------|
|---------------------------------------------------|
|---------------------------------------------------|
|-------------2----0h2p0---2-0----------------------|
|------------------------2-----2---0----------------|
|--0-----------------------------------3------------|


   S  S     S  S  S     S  S  S     S  S  S     S  S  S     S  S
|-12-------12-12-------12-12-------12-12-------12-12-------12-12-|
|----15b17-------15b17-------15b17-------15b17-------15b17-------|
|----------------------------------------------------------------|
|----------------------------------------------------------------|
|----------------------------------------------------------------|
|----------------------------------------------------------------|
|
|  E        E     S     S  S  S     E     S     S  S  S     S  S
|----------------------------------------------------------------|
|----------------------------------------------------------------|
|----------------------------------------------------------------|
|-----------2-----0h====2p=0--------2-----0--------0h=2p====0----|
|-----------------------------2-----------------2--------------2-|
|--0-------------------------------------------------------------|


   S     S  S  S     S  S  S     S  S  S     S  S  S     S  S  T  T
|-------12-12-------12-12-------12-12-------12-12-------12-12-15p12--|
|-15b17-------15b17-------15b17-------15b17-------15b17--------------|
|--------------------------------------------------------------------|
|--------------------------------------------------------------------|
|--------------------------------------------------------------------|
|--------------------------------------------------------------------|
|
|  E        E        S  S  S     S  E        E     Q
|--------------------------------------------------------------------|
|--------------------------------------------------------------------|
|--------------------------------------------------------------------|
|-----------2--------0h=2p=0--------2--------------0-----------------|
|--------------------------------2-----------------------------------|
|--0-----------------------------------------------------------------|


   T  T  T  T  T  T  T  T  S  S  S  S  S  S  S  T  T  E    S  S
|-15p12h15p12-15p12----15-15p12----15-12----12-15p12-15---12----|
|-------------------12----------15-------15------------------15-|
|---------------------------------------------------------------|
|---------------------------------------------------------------|
|---------------------------------------------------------------|
|---------------------------------------------------------------|
|
|  E           E           S  S  S  S  E     S  S     S S  S  S
|---------------------------------------------------------------|
|---------------------------------------------------------------|
|---------------------------------------------------------------|
|--------------2-----------0h=2p=0-----2-----0--------0h2p=0----|
|-----------------------------------2-----------2-------------2-|
|--0------------------------------------------------------------|


   T  T  S  S  T  T  S  S  S  T  T  S  S  S  S  S  T  T  S  S
|-12-15p12-15-15p12-12----12-15p12-15-15-12----12-15p12-12-15---|
|----------------------15-------------------15------------------|
|---------------------------------------------------------------|
|---------------------------------------------------------------|
|---------------------------------------------------------------|
|---------------------------------------------------------------|
|
|  E        E        S  S  S  S     E     S  S  S  E.
|---------------------------------------------------------------|
|---------------------------------------------------------------|
|---------------------------------------------------------------|
|-----------2--------0h=2p=0--------2-----0---------------------|
|-----------------------------2--------------2--0---------------|
|--0-----------------------------------------------3------------|


   S  S  S  T  T  S  S  S  S  S  T  T  S  S  S     S  E
|-12----12-14p12----15-12----12-14p12----------------12---|
|----15----------15-------15----------15-12-------12------|
|-------------------------------------------14b16---------|
|---------------------------------------------------------|
|---------------------------------------------------------|
|---------------------------------------------------------|
|
|  E     E        S  S  S  S  E        S  S  S     S  S S
|---------------------------------------------------------|
|---------------------------------------------------------|
|---------------------------------------------------------|
|--------2--------0h=2p=0-----2--------0-----0h====2p=0---|
|--------------------------2--------------2-------------2-|
|--0------------------------------------------------------|


   E     Q.             +Q.       S  S
|--------------------------------------|
|-15b17-15b17==========(15)r-----12-15-|
|--------------------------------------|
|--------------------------------------|
|--------------------------------------|
|--------------------------------------|
|
|  E     E     S S S S   E   E Q
|--------------------------------------|
|--------------------------------------|
|--------------------------------------|
|--------2-----0h2p0-----2-----0-------|
|--------------------2-----------------|
|--0-----------------------------------|


   S  T  T  S  S  S  T  T  S  S  S  S  S  T  T  T  T  S  S  S
|-12-15p12-12----12-15p12----15-12----12-15p12-12-15-15-12----|
|-------------15----------15-------15----------------------15-|
|-------------------------------------------------------------|
|-------------------------------------------------------------|
|-------------------------------------------------------------|
|-------------------------------------------------------------|
|
|  E        E     S  S     S  S  E     S  S     S     S  S  S
|-------------------------------------------------------------|
|-------------------------------------------------------------|
|-------------------------------------------------------------|
|-----------2-----0h=2p====0-----2-----0--------0h====2p=0----|
|-----------------------------2-----------2-----------------2-|
|--0----------------------------------------------------------|


   S  T  T  S  S  S  S  S  S  T  T  S  S  S  S  S   S  T  T
|-12-15p12----12----12----12-15p12-12----12-15-12-----15-12--|
|----------15----15----15-------------15-----------15--------|
|------------------------------------------------------------|
|------------------------------------------------------------|
|------------------------------------------------------------|
|------------------------------------------------------------|
|
|  E        E     S  S  S  S  E        S  S  S  E.
|------------------------------------------------------------|
|------------------------------------------------------------|
|------------------------------------------------------------|
|-----------2-----0h=2p=0-----2--------0---------------------|
|--------------------------2--------------2--0---------------|
|--0--------------------------------------------3------------|


   S  S  E  Q            +E    Q           E
|-12----12-15b17========(15)r-15b17-------15b17---|
|----15-------------------------------------------|
|-------------------------------------------------|
|-------------------------------------------------|
|-------------------------------------------------|
|-------------------------------------------------|
|
|  E     E  S     S S S   E    S    S S S  S    S
|-------------------------------------------------|
|-------------------------------------------------|
|-------------------------------------------------|
|--------2--0h====2p0-----2----0------0h2p=0------|
|---------------------2-------------2-----------2-|
|--0----------------------------------------------|


   Q       E       S     S    E  E  E  E
|-15b17---15b16---15b17-15b16---15-15-14-|
|----------------------------------------|
|----------------------------------------|
|----------------------------------------|
|----------------------------------------|
|----------------------------------------|
|
|  E    E  S    S  S     S    E  E  Q
|----------------------------------------|
|----------------------------------------|
|----------------------------------------|
|-------2--0h===2p=0----------2-----0----|
|------------------------2---------------|
|--0-------------------------------------|


        |---3---|
   Q    S  S    S  E    +E   E    E    E
|-15---14h15p==14p12---(12)------12---12pb14r==|
|---------------------------15-----------------|
|----------------------------------------------|
|----------------------------------------------|
|----------------------------------------------|
|----------------------------------------------|
|
|  E E  S    S     S S   E   S S  S S  S     S
|----------------------------------------------|
|----------------------------------------------|
|----------------------------------------------|
|----2--0h===2p====0-----2---0----0h2p=0-------|
|--------------------2---------2-------------2-|
|--0-------------------------------------------|


          |---3---|
   +Q     S  S    S  E    +E   E       +E      E    Q    E    E    +E   E    E    S  S
|-(12)---10h12p==10------------------------------|-------------------------------------*|
|-------------------13---(13)-15b17---(15)----15-|-12----------------------------------*|
|------------------------------------------------|------12-----------------------------*|
|------------------------------------------------|-----------14---(14)-12---10---12p10-*|
|------------------------------------------------|-------------------------------------*|
|------------------------------------------------|-------------------------------------*|
|
|   E  E  S    S     S S   E   S    S   S  E.       E E  S S  S S   E   S S  S S  S  S
|------------------------------------------------|-------------------------------------*|
|------------------------------------------------|-------------------------------------*|
|------------------------------------------------|-------------------------------------*|
|------2--0h===2p====0-----2---0-----------------|----2--0h2p=0-----2---0----0h2p=0----*|
|----------------------2------------2---0--------|--------------2---------2----------2-*|
|---0--------------------------------------3-----|--0----------------------------------*|


Duration Legend
---------------
W - whole; H - half; Q - quarter; E - 8th; S - 16th; T - 32nd; X - 64th; a - acciaccatura
+ - note tied to previous; . - note dotted; .. - note double dotted
Uncapitalized letters represent notes that are staccato (1/2 duration)
Irregular groupings are notated above the duration line
Duration letters will always appear directly above the note/fret number it represents the
duration for.  Duration letters with no fret number below them represent rests.  Multi-
bar rests are notated in the form Wxn, where n is the number of bars to rest for.  Low
melody durations appear below the staff

Tablature Legend
----------------
 h   - hammer-on
 p   - pull-off
 b   - bend
 pb  - pre-bend
 r   - bend release (if no number after the r, then release immediately)
 /\  - slide into or out of (from/to "nowhere")
 s   - legato slide
 S   - shift slide
  - natural harmonic
[n]  - artificial harmonic
n(n) - tapped harmonic
 ~   - vibrato
 tr  - trill
 T   - tap
 TP  - trem. picking
 PM  - palm muting
\n/  - tremolo bar dip; n = amount to dip
 \n  - tremolo bar down
 n/  - tremolo bar up
/n\  - tremolo bar inverted dip
 =   - hold bend; also acts as connecting device for hammers/pulls
 <>  - volume swell (louder/softer)
 x   - on rhythm slash represents muted slash
 o   - on rhythm slash represents single note slash

Misc Legend
-----------
 |  - bar
||  - double bar
||o - repeat start
o|| - repeat end
*|  - double bar (ending)
 :  - bar (freetime)
 $  - Segno
 &  - Coda
Tempo markers -  = BPM(8/16=s8/s16), where s8 = swing 8ths, s16 = swing 16ths
Добавлено: 09.11.2015
Другие материалы по этой песне:

Страница создана 11.04.2012
http://primanota.ru/deep-purple/you-fool-no-one-chords.htm
Привет, Гость.
Предлагаем пройти революционный курс по гитаре.
Подарок от PrimaNota.Ru, забирай!